  0
SECTION
  2
HEADER
  9
$ACADVER
  1
AC1024
  9
$ACADMAINTVER
 70
     6
  9
$DWGCODEPAGE
  3
ANSI_1252
  9
$INSBASE
 10
0.0
 20
0.0
 30
0.0
  9
$EXTMIN
 10
1.000000000000000E+20
 20
1.000000000000000E+20
 30
1.000000000000000E+20
  9
$EXTMAX
 10
-1.000000000000000E+20
 20
-1.000000000000000E+20
 30
-1.000000000000000E+20
  9
$LIMMIN
 10
0.0
 20
0.0
  9
$LIMMAX
 10
12.0
 20
9.0
  9
$ORTHOMODE
 70
     0
  9
$REGENMODE
 70
     1
  9
$FILLMODE
 70
     1
  9
$QTEXTMODE
 70
     0
  9
$MIRRTEXT
 70
     1
  9
$LTSCALE
 40
1.0
  9
$ATTMODE
 70
     1
  9
$TEXTSIZE
 40
0.2
  9
$TRACEWID
 40
0.05
  9
$TEXTSTYLE
  7
Standard
  9
$CLAYER
  8
0
  9
$CELTYPE
  6
ByLayer
  9
$CECOLOR
 62
   256
  9
$CELTSCALE
 40
1.0
  9
$DISPSILH
 70
     0
  9
$DIMSCALE
 40
1.0
  9
$DIMASZ
 40
0.18
  9
$DIMEXO
 40
0.0625
  9
$DIMDLI
 40
0.38
  9
$DIMRND
 40
0.0
  9
$DIMDLE
 40
0.0
  9
$DIMEXE
 40
0.18
  9
$DIMTP
 40
0.0
  9
$DIMTM
 40
0.0
  9
$DIMTXT
 40
0.18
  9
$DIMCEN
 40
0.09
  9
$DIMTSZ
 40
0.0
  9
$DIMTOL
 70
     0
  9
$DIMLIM
 70
     0
  9
$DIMTIH
 70
     1
  9
$DIMTOH
 70
     1
  9
$DIMSE1
 70
     0
  9
$DIMSE2
 70
     0
  9
$DIMTAD
 70
     0
  9
$DIMZIN
 70
     0
  9
$DIMBLK
  1

  9
$DIMASO
 70
     1
  9
$DIMSHO
 70
     1
  9
$DIMPOST
  1

  9
$DIMAPOST
  1

  9
$DIMALT
 70
     0
  9
$DIMALTD
 70
     2
  9
$DIMALTF
 40
25.4
  9
$DIMLFAC
 40
1.0
  9
$DIMTOFL
 70
     0
  9
$DIMTVP
 40
0.0
  9
$DIMTIX
 70
     0
  9
$DIMSOXD
 70
     0
  9
$DIMSAH
 70
     0
  9
$DIMBLK1
  1

  9
$DIMBLK2
  1

  9
$DIMSTYLE
  2
Standard
  9
$DIMCLRD
 70
     0
  9
$DIMCLRE
 70
     0
  9
$DIMCLRT
 70
     0
  9
$DIMTFAC
 40
1.0
  9
$DIMGAP
 40
0.09
  9
$DIMJUST
 70
     0
  9
$DIMSD1
 70
     0
  9
$DIMSD2
 70
     0
  9
$DIMTOLJ
 70
     1
  9
$DIMTZIN
 70
     0
  9
$DIMALTZ
 70
     0
  9
$DIMALTTZ
 70
     0
  9
$DIMUPT
 70
     0
  9
$DIMDEC
 70
     4
  9
$DIMTDEC
 70
     4
  9
$DIMALTU
 70
     2
  9
$DIMALTTD
 70
     2
  9
$DIMTXSTY
  7
Standard
  9
$DIMAUNIT
 70
     0
  9
$DIMADEC
 70
     0
  9
$DIMALTRND
 40
0.0
  9
$DIMAZIN
 70
     0
  9
$DIMDSEP
 70
    46
  9
$DIMATFIT
 70
     3
  9
$DIMFRAC
 70
     0
  9
$DIMLDRBLK
  1

  9
$DIMLUNIT
 70
     2
  9
$DIMLWD
 70
    -2
  9
$DIMLWE
 70
    -2
  9
$DIMTMOVE
 70
     0
  9
$DIMFXL
 40
1.0
  9
$DIMFXLON
 70
     0
  9
$DIMJOGANG
 40
0.7853981633974483
  9
$DIMTFILL
 70
     0
  9
$DIMTFILLCLR
 70
     0
  9
$DIMARCSYM
 70
     0
  9
$DIMLTYPE
  6

  9
$DIMLTEX1
  6

  9
$DIMLTEX2
  6

  9
$DIMTXTDIRECTION
 70
     0
  9
$LUNITS
 70
     2
  9
$LUPREC
 70
     4
  9
$SKETCHINC
 40
0.1
  9
$FILLETRAD
 40
0.5
  9
$AUNITS
 70
     0
  9
$AUPREC
 70
     0
  9
$MENU
  1
.
  9
$ELEVATION
 40
0.0
  9
$PELEVATION
 40
0.0
  9
$THICKNESS
 40
0.0
  9
$LIMCHECK
 70
     0
  9
$CHAMFERA
 40
0.5
  9
$CHAMFERB
 40
0.5
  9
$CHAMFERC
 40
1.0
  9
$CHAMFERD
 40
0.0
  9
$SKPOLY
 70
     0
  9
$TDCREATE
 40
2456836.400283229
  9
$TDUCREATE
 40
2456836.316949896
  9
$TDUPDATE
 40
2456836.40028353
  9
$TDUUPDATE
 40
2456836.316950197
  9
$TDINDWG
 40
0.0000000116
  9
$TDUSRTIMER
 40
0.0000000116
  9
$USRTIMER
 70
     1
  9
$ANGBASE
 50
0.0
  9
$ANGDIR
 70
     0
  9
$PDMODE
 70
     0
  9
$PDSIZE
 40
0.0
  9
$PLINEWID
 40
0.0
  9
$SPLFRAME
 70
     0
  9
$SPLINETYPE
 70
     6
  9
$SPLINESEGS
 70
     8
  9
$HANDSEED
  5
6E2
  9
$SURFTAB1
 70
     6
  9
$SURFTAB2
 70
     6
  9
$SURFTYPE
 70
     6
  9
$SURFU
 70
     6
  9
$SURFV
 70
     6
  9
$UCSBASE
  2

  9
$UCSNAME
  2

  9
$UCSORG
 10
0.0
 20
0.0
 30
0.0
  9
$UCSXDIR
 10
1.0
 20
0.0
 30
0.0
  9
$UCSYDIR
 10
0.0
 20
1.0
 30
0.0
  9
$UCSORTHOREF
  2

  9
$UCSORTHOVIEW
 70
     0
  9
$UCSORGTOP
 10
0.0
 20
0.0
 30
0.0
  9
$UCSORGBOTTOM
 10
0.0
 20
0.0
 30
0.0
  9
$UCSORGLEFT
 10
0.0
 20
0.0
 30
0.0
  9
$UCSORGRIGHT
 10
0.0
 20
0.0
 30
0.0
  9
$UCSORGFRONT
 10
0.0
 20
0.0
 30
0.0
  9
$UCSORGBACK
 10
0.0
 20
0.0
 30
0.0
  9
$PUCSBASE
  2

  9
$PUCSNAME
  2

  9
$PUCSORG
 10
0.0
 20
0.0
 30
0.0
  9
$PUCSXDIR
 10
1.0
 20
0.0
 30
0.0
  9
$PUCSYDIR
 10
0.0
 20
1.0
 30
0.0
  9
$PUCSORTHOREF
  2

  9
$PUCSORTHOVIEW
 70
     0
  9
$PUCSORGTOP
 10
0.0
 20
0.0
 30
0.0
  9
$PUCSORGBOTTOM
 10
0.0
 20
0.0
 30
0.0
  9
$PUCSORGLEFT
 10
0.0
 20
0.0
 30
0.0
  9
$PUCSORGRIGHT
 10
0.0
 20
0.0
 30
0.0
  9
$PUCSORGFRONT
 10
0.0
 20
0.0
 30
0.0
  9
$PUCSORGBACK
 10
0.0
 20
0.0
 30
0.0
  9
$USERI1
 70
     0
  9
$USERI2
 70
     0
  9
$USERI3
 70
     0
  9
$USERI4
 70
     0
  9
$USERI5
 70
     0
  9
$USERR1
 40
0.0
  9
$USERR2
 40
0.0
  9
$USERR3
 40
0.0
  9
$USERR4
 40
0.0
  9
$USERR5
 40
0.0
  9
$WORLDVIEW
 70
     1
  9
$SHADEDGE
 70
     3
  9
$SHADEDIF
 70
    70
  9
$TILEMODE
 70
     1
  9
$MAXACTVP
 70
    64
  9
$PINSBASE
 10
0.0
 20
0.0
 30
0.0
  9
$PLIMCHECK
 70
     0
  9
$PEXTMIN
 10
1.000000000000000E+20
 20
1.000000000000000E+20
 30
1.000000000000000E+20
  9
$PEXTMAX
 10
-1.000000000000000E+20
 20
-1.000000000000000E+20
 30
-1.000000000000000E+20
  9
$PLIMMIN
 10
0.0
 20
0.0
  9
$PLIMMAX
 10
12.0
 20
9.0
  9
$UNITMODE
 70
     0
  9
$VISRETAIN
 70
     1
  9
$PLINEGEN
 70
     0
  9
$PSLTSCALE
 70
     1
  9
$TREEDEPTH
 70
  3020
  9
$CMLSTYLE
  2
Standard
  9
$CMLJUST
 70
     0
  9
$CMLSCALE
 40
1.0
  9
$PROXYGRAPHICS
 70
     1
  9
$MEASUREMENT
 70
     0
  9
$CELWEIGHT
370
    -1
  9
$ENDCAPS
280
     0
  9
$JOINSTYLE
280
     0
  9
$LWDISPLAY
290
     1
  9
$INSUNITS
 70
     1
  9
$HYPERLINKBASE
  1

  9
$STYLESHEET
  1

  9
$XEDIT
290
     1
  9
$CEPSNTYPE
380
     0
  9
$PSTYLEMODE
290
     1
  9
$FINGERPRINTGUID
  2
{76FC1B9A-7C3E-416D-8CDE-B021497EA91D}
  9
$VERSIONGUID
  2
{FAEB1C32-E019-11D5-929B-00C0DF256EC4}
  9
$EXTNAMES
290
     1
  9
$PSVPSCALE
 40
0.0
  9
$OLESTARTUP
290
     0
  9
$SORTENTS
280
   127
  9
$INDEXCTL
280
     0
  9
$HIDETEXT
280
     1
  9
$XCLIPFRAME
280
     2
  9
$HALOGAP
280
     0
  9
$OBSCOLOR
 70
   257
  9
$OBSLTYPE
280
     0
  9
$INTERSECTIONDISPLAY
280
     0
  9
$INTERSECTIONCOLOR
 70
   257
  9
$DIMASSOC
280
     2
  9
$PROJECTNAME
  1

  9
$CAMERADISPLAY
290
     0
  9
$LENSLENGTH
 40
50.0
  9
$CAMERAHEIGHT
 40
0.0
  9
$STEPSPERSEC
 40
2.0
  9
$STEPSIZE
 40
6.0
  9
$3DDWFPREC
 40
2.0
  9
$PSOLWIDTH
 40
0.25
  9
$PSOLHEIGHT
 40
4.0
  9
$LOFTANG1
 40
1.570796326794897
  9
$LOFTANG2
 40
1.570796326794897
  9
$LOFTMAG1
 40
0.0
  9
$LOFTMAG2
 40
0.0
  9
$LOFTPARAM
 70
     7
  9
$LOFTNORMALS
280
     1
  9
$LATITUDE
 40
37.795
  9
$LONGITUDE
 40
-122.394
  9
$NORTHDIRECTION
 40
0.0
  9
$TIMEZONE
 70
 -8000
  9
$LIGHTGLYPHDISPLAY
280
     1
  9
$TILEMODELIGHTSYNCH
280
     1
  9
$CMATERIAL
347
3C
  9
$SOLIDHIST
280
     1
  9
$SHOWHIST
280
     1
  9
$DWFFRAME
280
     2
  9
$DGNFRAME
280
     2
  9
$REALWORLDSCALE
290
     1
  9
$INTERFERECOLOR
 62
   256
  9
$CSHADOW
280
     0
  9
$SHADOWPLANELOCATION
 40
0.0
  0
ENDSEC
  0
SECTION
  2
CLASSES
  0
CLASS
  1
ACDBDICTIONARYWDFLT
  2
AcDbDictionaryWithDefault
  3
ObjectDBX Classes
 90
        0
 91
        4
280
     0
281
     0
  0
CLASS
  1
VISUALSTYLE
  2
AcDbVisualStyle
  3
ObjectDBX Classes
 90
     4095
 91
        4
280
     0
281
     0
  0
CLASS
  1
MATERIAL
  2
AcDbMaterial
  3
ObjectDBX Classes
 90
     1153
 91
        4
280
     0
281
     0
  0
CLASS
  1
SUN
  2
AcDbSun
  3
SCENEOE
 90
     1024
 91
        4
280
     0
281
     0
  0
ENDSEC
  0
SECTION
  2
TABLES
  0
TABLE
  2
VPORT
  5
8
330
0
100
AcDbSymbolTable
 70
     1
  0
VPORT
  5
29
330
8
100
AcDbSymbolTableRecord
100
AcDbViewportTableRecord
  2
*Active
 70
     0
 10
0.0
 20
0.0
 11
1.0
 21
1.0
 12
0.0
 22
0.0
 13
0.0
 23
0.0
 14
0.5
 24
0.5
 15
0.5
 25
0.5
 16
0.0
 26
0.0
 36
1.0
 17
209.9997916141666
 27
-148.5000416295416
 37
0.0
 40
297.0000832590831
 41
1.414139614438941
 42
50.0
 43
0.0
 44
0.0
 50
0.0
 51
0.0
 71
     0
 72
   100
 73
     1
 74
     3
 75
     0
 76
     0
 77
     0
 78
     0
281
     0
 65
     1
110
0.0
120
0.0
130
0.0
111
1.0
121
0.0
131
0.0
112
0.0
122
1.0
132
0.0
 79
     0
146
0.0
 60
     3
 61
     5
292
     1
282
     1
141
0.0
142
0.0
 63
   250
361
3F
  0
ENDTAB
  0
TABLE
  2
LTYPE
  5
5
330
0
100
AcDbSymbolTable
 70
     1
  0
LTYPE
  5
14
330
5
100
AcDbSymbolTableRecord
100
AcDbLinetypeTableRecord
  2
ByBlock
 70
     0
  3

 72
    65
 73
     0
 40
0.0
  0
LTYPE
  5
15
330
5
100
AcDbSymbolTableRecord
100
AcDbLinetypeTableRecord
  2
ByLayer
 70
     0
  3

 72
    65
 73
     0
 40
0.0
  0
LTYPE
  5
16
330
5
100
AcDbSymbolTableRecord
100
AcDbLinetypeTableRecord
  2
Continuous
 70
     0
  3
Solid line
 72
    65
 73
     0
 40
0.0
  0
ENDTAB
  0
TABLE
  2
LAYER
  5
2
330
0
100
AcDbSymbolTable
 70
     4
  0
LAYER
  5
10
330
2
100
AcDbSymbolTableRecord
100
AcDbLayerTableRecord
  2
0
 70
     0
 62
     7
  6
Continuous
370
    -3
390
F
347
3E
  0
LAYER
  5
40
330
2
100
AcDbSymbolTableRecord
100
AcDbLayerTableRecord
  2
Exterieur
 70
     0
 62
     7
  6
Continuous
370
    -3
390
F
347
3E
  0
LAYER
  5
291
330
2
100
AcDbSymbolTableRecord
100
AcDbLayerTableRecord
  2
interieur
 70
     0
 62
     7
  6
Continuous
370
    -3
390
F
347
3E
  0
LAYER
  5
692
330
2
100
AcDbSymbolTableRecord
100
AcDbLayerTableRecord
  2
Gravure
 70
     0
 62
     7
  6
Continuous
370
    -3
390
F
347
3E
  0
ENDTAB
  0
TABLE
  2
STYLE
  5
3
330
0
100
AcDbSymbolTable
 70
     1
  0
STYLE
  5
11
330
3
100
AcDbSymbolTableRecord
100
AcDbTextStyleTableRecord
  2
Standard
 70
     0
 40
0.0
 41
1.0
 50
0.0
 71
     0
 42
0.2
  3
txt
  4

  0
ENDTAB
  0
TABLE
  2
VIEW
  5
6
330
0
100
AcDbSymbolTable
 70
     0
  0
ENDTAB
  0
TABLE
  2
UCS
  5
7
330
0
100
AcDbSymbolTable
 70
     0
  0
ENDTAB
  0
TABLE
  2
APPID
  5
9
330
0
100
AcDbSymbolTable
 70
     1
  0
APPID
  5
12
330
9
100
AcDbSymbolTableRecord
100
AcDbRegAppTableRecord
  2
ACAD
 70
     0
  0
ENDTAB
  0
TABLE
  2
DIMSTYLE
  5
A
330
0
100
AcDbSymbolTable
 70
     1
100
AcDbDimStyleTable
  0
DIMSTYLE
105
27
330
A
100
AcDbSymbolTableRecord
100
AcDbDimStyleTableRecord
  2
Standard
 70
     0
178
     0
340
11
  0
ENDTAB
  0
TABLE
  2
BLOCK_RECORD
  5
1
330
0
100
AcDbSymbolTable
 70
   216
  0
BLOCK_RECORD
  5
1F
330
1
100
AcDbSymbolTableRecord
100
AcDbBlockTableRecord
  2
*Model_Space
340
22
 70
     0
280
     1
281
     0
  0
BLOCK_RECORD
  5
1B
330
1
100
AcDbSymbolTableRecord
100
AcDbBlockTableRecord
  2
*Paper_Space
340
1E
 70
     0
280
     1
281
     0
  0
BLOCK_RECORD
  5
23
330
1
100
AcDbSymbolTableRecord
100
AcDbBlockTableRecord
  2
*Paper_Space0
340
26
 70
     0
280
     1
281
     0
  0
BLOCK_RECORD
  5
41
330
1
100
AcDbSymbolTableRecord
100
AcDbBlockTableRecord
  2
block 2
340
0
102
{BLKREFS
331
42
102
}
 70
     0
280
     1
281
     0
  0
BLOCK_RECORD
  5
45
330
1
100
AcDbSymbolTableRecord
100
AcDbBlockTableRecord
  2
block 3
340
0
102
{BLKREFS
331
46
102
}
 70
     0
280
     1
281
     0
  0
BLOCK_RECORD
  5
4C
330
1
100
AcDbSymbolTableRecord
100
AcDbBlockTableRecord
  2
block 4
340
0
102
{BLKREFS
331
4D
102
}
 70
     0
280
     1
281
     0
  0
BLOCK_RECORD
  5
53
330
1
100
AcDbSymbolTableRecord
100
AcDbBlockTableRecord
  2
block 5
340
0
102
{BLKREFS
331
54
102
}
 70
     0
280
     1
281
     0
  0
BLOCK_RECORD
  5
5A
330
1
100
AcDbSymbolTableRecord
100
AcDbBlockTableRecord
  2
block 6
340
0
102
{BLKREFS
331
5B
102
}
 70
     0
280
     1
281
     0
  0
BLOCK_RECORD
  5
61
330
1
100
AcDbSymbolTableRecord
100
AcDbBlockTableRecord
  2
block 7
340
0
102
{BLKREFS
331
62
102
}
 70
     0
280
     1
281
     0
  0
BLOCK_RECORD
  5
66
330
1
100
AcDbSymbolTableRecord
100
AcDbBlockTableRecord
  2
block 8
340
0
102
{BLKREFS
331
67
102
}
 70
     0
280
     1
281
     0
  0
BLOCK_RECORD
  5
6E
330
1
100
AcDbSymbolTableRecord
100
AcDbBlockTableRecord
  2
block 9
340
0
102
{BLKREFS
331
6F
102
}
 70
     0
280
     1
281
     0
  0
BLOCK_RECORD
  5
73
330
1
100
AcDbSymbolTableRecord
100
AcDbBlockTableRecord
  2
block 10
340
0
102
{BLKREFS
331
74
102
}
 70
     0
280
     1
281
     0
  0
BLOCK_RECORD
  5
7B
330
1
100
AcDbSymbolTableRecord
100
AcDbBlockTableRecord
  2
block 11
340
0
102
{BLKREFS
331
7C
102
}
 70
     0
280
     1
281
     0
  0
BLOCK_RECORD
  5
80
330
1
100
AcDbSymbolTableRecord
100
AcDbBlockTableRecord
  2
block 12
340
0
102
{BLKREFS
331
81
102
}
 70
     0
280
     1
281
     0
  0
BLOCK_RECORD
  5
88
330
1
100
AcDbSymbolTableRecord
100
AcDbBlockTableRecord
  2
block 13
340
0
102
{BLKREFS
331
89
102
}
 70
     0
280
     1
281
     0
  0
BLOCK_RECORD
  5
8D
330
1
100
AcDbSymbolTableRecord
100
AcDbBlockTableRecord
  2
block 14
340
0
102
{BLKREFS
331
8E
102
}
 70
     0
280
     1
281
     0
  0
BLOCK_RECORD
  5
95
330
1
100
AcDbSymbolTableRecord
100
AcDbBlockTableRecord
  2
block 15
340
0
102
{BLKREFS
331
96
102
}
 70
     0
280
     1
281
     0
  0
BLOCK_RECORD
  5
9A
330
1
100
AcDbSymbolTableRecord
100
AcDbBlockTableRecord
  2
block 16
340
0
102
{BLKREFS
331
9B
102
}
 70
     0
280
     1
281
     0
  0
BLOCK_RECORD
  5
9F
330
1
100
AcDbSymbolTableRecord
100
AcDbBlockTableRecord
  2
block 17
340
0
102
{BLKREFS
331
A0
102
}
 70
     0
280
     1
281
     0
  0
BLOCK_RECORD
  5
A7
330
1
100
AcDbSymbolTableRecord
100
AcDbBlockTableRecord
  2
block 18
340
0
102
{BLKREFS
331
A8
102
}
 70
     0
280
     1
281
     0
  0
BLOCK_RECORD
  5
AF
330
1
100
AcDbSymbolTableRecord
100
AcDbBlockTableRecord
  2
block 19
340
0
102
{BLKREFS
331
B0
102
}
 70
     0
280
     1
281
     0
  0
BLOCK_RECORD
  5
B7
330
1
100
AcDbSymbolTableRecord
100
AcDbBlockTableRecord
  2
block 20
340
0
102
{BLKREFS
331
B8
102
}
 70
     0
280
     1
281
     0
  0
BLOCK_RECORD
  5
BF
330
1
100
AcDbSymbolTableRecord
100
AcDbBlockTableRecord
  2
block 21
340
0
102
{BLKREFS
331
C0
102
}
 70
     0
280
     1
281
     0
  0
BLOCK_RECORD
  5
C4
330
1
100
AcDbSymbolTableRecord
100
AcDbBlockTableRecord
  2
block 22
340
0
102
{BLKREFS
331
C5
102
}
 70
     0
280
     1
281
     0
  0
BLOCK_RECORD
  5
CC
330
1
100
AcDbSymbolTableRecord
100
AcDbBlockTableRecord
  2
block 23
340
0
102
{BLKREFS
331
CD
102
}
 70
     0
280
     1
281
     0
  0
BLOCK_RECORD
  5
D4
330
1
100
AcDbSymbolTableRecord
100
AcDbBlockTableRecord
  2
block 24
340
0
102
{BLKREFS
331
D5
102
}
 70
     0
280
     1
281
     0
  0
BLOCK_RECORD
  5
D9
330
1
100
AcDbSymbolTableRecord
100
AcDbBlockTableRecord
  2
block 25
340
0
102
{BLKREFS
331
DA
102
}
 70
     0
280
     1
281
     0
  0
BLOCK_RECORD
  5
E1
330
1
100
AcDbSymbolTableRecord
100
AcDbBlockTableRecord
  2
block 26
340
0
102
{BLKREFS
331
E2
102
}
 70
     0
280
     1
281
     0
  0
BLOCK_RECORD
  5
E9
330
1
100
AcDbSymbolTableRecord
100
AcDbBlockTableRecord
  2
block 27
340
0
102
{BLKREFS
331
EA
102
}
 70
     0
280
     1
281
     0
  0
BLOCK_RECORD
  5
F1
330
1
100
AcDbSymbolTableRecord
100
AcDbBlockTableRecord
  2
block 28
340
0
102
{BLKREFS
331
F2
102
}
 70
     0
280
     1
281
     0
  0
BLOCK_RECORD
  5
F9
330
1
100
AcDbSymbolTableRecord
100
AcDbBlockTableRecord
  2
block 29
340
0
102
{BLKREFS
331
FA
102
}
 70
     0
280
     1
281
     0
  0
BLOCK_RECORD
  5
FE
330
1
100
AcDbSymbolTableRecord
100
AcDbBlockTableRecord
  2
block 30
340
0
102
{BLKREFS
331
FF
102
}
 70
     0
280
     1
281
     0
  0
BLOCK_RECORD
  5
103
330
1
100
AcDbSymbolTableRecord
100
AcDbBlockTableRecord
  2
block 31
340
0
102
{BLKREFS
331
104
102
}
 70
     0
280
     1
281
     0
  0
BLOCK_RECORD
  5
10B
330
1
100
AcDbSymbolTableRecord
100
AcDbBlockTableRecord
  2
block 32
340
0
102
{BLKREFS
331
10C
102
}
 70
     0
280
     1
281
     0
  0
BLOCK_RECORD
  5
112
330
1
100
AcDbSymbolTableRecord
100
AcDbBlockTableRecord
  2
block 33
340
0
102
{BLKREFS
331
113
102
}
 70
     0
280
     1
281
     0
  0
BLOCK_RECORD
  5
119
330
1
100
AcDbSymbolTableRecord
100
AcDbBlockTableRecord
  2
block 34
340
0
102
{BLKREFS
331
11A
102
}
 70
     0
280
     1
281
     0
  0
BLOCK_RECORD
  5
120
330
1
100
AcDbSymbolTableRecord
100
AcDbBlockTableRecord
  2
block 35
340
0
102
{BLKREFS
331
121
102
}
 70
     0
280
     1
281
     0
  0
BLOCK_RECORD
  5
127
330
1
100
AcDbSymbolTableRecord
100
AcDbBlockTableRecord
  2
block 36
340
0
102
{BLKREFS
331
128
102
}
 70
     0
280
     1
281
     0
  0
BLOCK_RECORD
  5
131
330
1
100
AcDbSymbolTableRecord
100
AcDbBlockTableRecord
  2
block 37
340
0
102
{BLKREFS
331
132
102
}
 70
     0
280
     1
281
     0
  0
BLOCK_RECORD
  5
13B
330
1
100
AcDbSymbolTableRecord
100
AcDbBlockTableRecord
  2
block 38
340
0
102
{BLKREFS
331
13C
102
}
 70
     0
280
     1
281
     0
  0
BLOCK_RECORD
  5
13F
330
1
100
AcDbSymbolTableRecord
100
AcDbBlockTableRecord
  2
block 39
340
0
102
{BLKREFS
331
140
102
}
 70
     0
280
     1
281
     0
  0
BLOCK_RECORD
  5
147
330
1
100
AcDbSymbolTableRecord
100
AcDbBlockTableRecord
  2
block 40
340
0
102
{BLKREFS
331
148
102
}
 70
     0
280
     1
281
     0
  0
BLOCK_RECORD
  5
14C
330
1
100
AcDbSymbolTableRecord
100
AcDbBlockTableRecord
  2
block 41
340
0
102
{BLKREFS
331
14D
102
}
 70
     0
280
     1
281
     0
  0
BLOCK_RECORD
  5
154
330
1
100
AcDbSymbolTableRecord
100
AcDbBlockTableRecord
  2
block 42
340
0
102
{BLKREFS
331
155
102
}
 70
     0
280
     1
281
     0
  0
BLOCK_RECORD
  5
159
330
1
100
AcDbSymbolTableRecord
100
AcDbBlockTableRecord
  2
block 43
340
0
102
{BLKREFS
331
15A
102
}
 70
     0
280
     1
281
     0
  0
BLOCK_RECORD
  5
161
330
1
100
AcDbSymbolTableRecord
100
AcDbBlockTableRecord
  2
block 44
340
0
102
{BLKREFS
331
162
102
}
 70
     0
280
     1
281
     0
  0
BLOCK_RECORD
  5
169
330
1
100
AcDbSymbolTableRecord
100
AcDbBlockTableRecord
  2
block 45
340
0
102
{BLKREFS
331
16A
102
}
 70
     0
280
     1
281
     0
  0
BLOCK_RECORD
  5
171
330
1
100
AcDbSymbolTableRecord
100
AcDbBlockTableRecord
  2
block 46
340
0
102
{BLKREFS
331
172
102
}
 70
     0
280
     1
281
     0
  0
BLOCK_RECORD
  5
176
330
1
100
AcDbSymbolTableRecord
100
AcDbBlockTableRecord
  2
block 47
340
0
102
{BLKREFS
331
177
102
}
 70
     0
280
     1
281
     0
  0
BLOCK_RECORD
  5
17E
330
1
100
AcDbSymbolTableRecord
100
AcDbBlockTableRecord
  2
block 48
340
0
102
{BLKREFS
331
17F
102
}
 70
     0
280
     1
281
     0
  0
BLOCK_RECORD
  5
183
330
1
100
AcDbSymbolTableRecord
100
AcDbBlockTableRecord
  2
block 49
340
0
102
{BLKREFS
331
184
102
}
 70
     0
280
     1
281
     0
  0
BLOCK_RECORD
  5
18B
330
1
100
AcDbSymbolTableRecord
100
AcDbBlockTableRecord
  2
block 50
340
0
102
{BLKREFS
331
18C
102
}
 70
     0
280
     1
281
     0
  0
BLOCK_RECORD
  5
190
330
1
100
AcDbSymbolTableRecord
100
AcDbBlockTableRecord
  2
block 51
340
0
102
{BLKREFS
331
191
102
}
 70
     0
280
     1
281
     0
  0
BLOCK_RECORD
  5
198
330
1
100
AcDbSymbolTableRecord
100
AcDbBlockTableRecord
  2
block 52
340
0
102
{BLKREFS
331
199
102
}
 70
     0
280
     1
281
     0
  0
BLOCK_RECORD
  5
19D
330
1
100
AcDbSymbolTableRecord
100
AcDbBlockTableRecord
  2
block 53
340
0
102
{BLKREFS
331
19E
102
}
 70
     0
280
     1
281
     0
  0
BLOCK_RECORD
  5
1A5
330
1
100
AcDbSymbolTableRecord
100
AcDbBlockTableRecord
  2
block 54
340
0
102
{BLKREFS
331
1A6
102
}
 70
     0
280
     1
281
     0
  0
BLOCK_RECORD
  5
1AD
330
1
100
AcDbSymbolTableRecord
100
AcDbBlockTableRecord
  2
block 55
340
0
102
{BLKREFS
331
1AE
102
}
 70
     0
280
     1
281
     0
  0
BLOCK_RECORD
  5
1B1
330
1
100
AcDbSymbolTableRecord
100
AcDbBlockTableRecord
  2
block 56
340
0
102
{BLKREFS
331
1B2
102
}
 70
     0
280
     1
281
     0
  0
BLOCK_RECORD
  5
1B9
330
1
100
AcDbSymbolTableRecord
100
AcDbBlockTableRecord
  2
block 57
340
0
102
{BLKREFS
331
1BA
102
}
 70
     0
280
     1
281
     0
  0
BLOCK_RECORD
  5
1BE
330
1
100
AcDbSymbolTableRecord
100
AcDbBlockTableRecord
  2
block 58
340
0
102
{BLKREFS
331
1BF
102
}
 70
     0
280
     1
281
     0
  0
BLOCK_RECORD
  5
1C6
330
1
100
AcDbSymbolTableRecord
100
AcDbBlockTableRecord
  2
block 59
340
0
102
{BLKREFS
331
1C7
102
}
 70
     0
280
     1
281
     0
  0
BLOCK_RECORD
  5
1CB
330
1
100
AcDbSymbolTableRecord
100
AcDbBlockTableRecord
  2
block 60
340
0
102
{BLKREFS
331
1CC
102
}
 70
     0
280
     1
281
     0
  0
BLOCK_RECORD
  5
1D3
330
1
100
AcDbSymbolTableRecord
100
AcDbBlockTableRecord
  2
block 61
340
0
102
{BLKREFS
331
1D4
102
}
 70
     0
280
     1
281
     0
  0
BLOCK_RECORD
  5
1DB
330
1
100
AcDbSymbolTableRecord
100
AcDbBlockTableRecord
  2
block 62
340
0
102
{BLKREFS
331
1DC
102
}
 70
     0
280
     1
281
     0
  0
BLOCK_RECORD
  5
1E3
330
1
100
AcDbSymbolTableRecord
100
AcDbBlockTableRecord
  2
block 63
340
0
102
{BLKREFS
331
1E4
102
}
 70
     0
280
     1
281
     0
  0
BLOCK_RECORD
  5
1E8
330
1
100
AcDbSymbolTableRecord
100
AcDbBlockTableRecord
  2
block 64
340
0
102
{BLKREFS
331
1E9
102
}
 70
     0
280
     1
281
     0
  0
BLOCK_RECORD
  5
1F0
330
1
100
AcDbSymbolTableRecord
100
AcDbBlockTableRecord
  2
block 65
340
0
102
{BLKREFS
331
1F1
102
}
 70
     0
280
     1
281
     0
  0
BLOCK_RECORD
  5
1F5
330
1
100
AcDbSymbolTableRecord
100
AcDbBlockTableRecord
  2
block 66
340
0
102
{BLKREFS
331
1F6
102
}
 70
     0
280
     1
281
     0
  0
BLOCK_RECORD
  5
1FD
330
1
100
AcDbSymbolTableRecord
100
AcDbBlockTableRecord
  2
block 67
340
0
102
{BLKREFS
331
1FE
102
}
 70
     0
280
     1
281
     0
  0
BLOCK_RECORD
  5
202
330
1
100
AcDbSymbolTableRecord
100
AcDbBlockTableRecord
  2
block 68
340
0
102
{BLKREFS
331
203
102
}
 70
     0
280
     1
281
     0
  0
BLOCK_RECORD
  5
20A
330
1
100
AcDbSymbolTableRecord
100
AcDbBlockTableRecord
  2
block 69
340
0
102
{BLKREFS
331
20B
102
}
 70
     0
280
     1
281
     0
  0
BLOCK_RECORD
  5
20F
330
1
100
AcDbSymbolTableRecord
100
AcDbBlockTableRecord
  2
block 70
340
0
102
{BLKREFS
331
210
102
}
 70
     0
280
     1
281
     0
  0
BLOCK_RECORD
  5
217
330
1
100
AcDbSymbolTableRecord
100
AcDbBlockTableRecord
  2
block 71
340
0
102
{BLKREFS
331
218
102
}
 70
     0
280
     1
281
     0
  0
BLOCK_RECORD
  5
21F
330
1
100
AcDbSymbolTableRecord
100
AcDbBlockTableRecord
  2
block 72
340
0
102
{BLKREFS
331
220
102
}
 70
     0
280
     1
281
     0
  0
BLOCK_RECORD
  5
223
330
1
100
AcDbSymbolTableRecord
100
AcDbBlockTableRecord
  2
block 73
340
0
102
{BLKREFS
331
224
102
}
 70
     0
280
     1
281
     0
  0
BLOCK_RECORD
  5
22B
330
1
100
AcDbSymbolTableRecord
100
AcDbBlockTableRecord
  2
block 74
340
0
102
{BLKREFS
331
22C
102
}
 70
     0
280
     1
281
     0
  0
BLOCK_RECORD
  5
230
330
1
100
AcDbSymbolTableRecord
100
AcDbBlockTableRecord
  2
block 75
340
0
102
{BLKREFS
331
231
102
}
 70
     0
280
     1
281
     0
  0
BLOCK_RECORD
  5
238
330
1
100
AcDbSymbolTableRecord
100
AcDbBlockTableRecord
  2
block 76
340
0
102
{BLKREFS
331
239
102
}
 70
     0
280
     1
281
     0
  0
BLOCK_RECORD
  5
23D
330
1
100
AcDbSymbolTableRecord
100
AcDbBlockTableRecord
  2
block 77
340
0
102
{BLKREFS
331
23E
102
}
 70
     0
280
     1
281
     0
  0
BLOCK_RECORD
  5
245
330
1
100
AcDbSymbolTableRecord
100
AcDbBlockTableRecord
  2
block 78
340
0
102
{BLKREFS
331
246
102
}
 70
     0
280
     1
281
     0
  0
BLOCK_RECORD
  5
24D
330
1
100
AcDbSymbolTableRecord
100
AcDbBlockTableRecord
  2
block 79
340
0
102
{BLKREFS
331
24E
102
}
 70
     0
280
     1
281
     0
  0
BLOCK_RECORD
  5
255
330
1
100
AcDbSymbolTableRecord
100
AcDbBlockTableRecord
  2
block 80
340
0
102
{BLKREFS
331
256
102
}
 70
     0
280
     1
281
     0
  0
BLOCK_RECORD
  5
25A
330
1
100
AcDbSymbolTableRecord
100
AcDbBlockTableRecord
  2
block 81
340
0
102
{BLKREFS
331
25B
102
}
 70
     0
280
     1
281
     0
  0
BLOCK_RECORD
  5
262
330
1
100
AcDbSymbolTableRecord
100
AcDbBlockTableRecord
  2
block 82
340
0
102
{BLKREFS
331
263
102
}
 70
     0
280
     1
281
     0
  0
BLOCK_RECORD
  5
267
330
1
100
AcDbSymbolTableRecord
100
AcDbBlockTableRecord
  2
block 83
340
0
102
{BLKREFS
331
268
102
}
 70
     0
280
     1
281
     0
  0
BLOCK_RECORD
  5
26F
330
1
100
AcDbSymbolTableRecord
100
AcDbBlockTableRecord
  2
block 84
340
0
102
{BLKREFS
331
270
102
}
 70
     0
280
     1
281
     0
  0
BLOCK_RECORD
  5
274
330
1
100
AcDbSymbolTableRecord
100
AcDbBlockTableRecord
  2
block 85
340
0
102
{BLKREFS
331
275
102
}
 70
     0
280
     1
281
     0
  0
BLOCK_RECORD
  5
27C
330
1
100
AcDbSymbolTableRecord
100
AcDbBlockTableRecord
  2
block 86
340
0
102
{BLKREFS
331
27D
102
}
 70
     0
280
     1
281
     0
  0
BLOCK_RECORD
  5
281
330
1
100
AcDbSymbolTableRecord
100
AcDbBlockTableRecord
  2
block 87
340
0
102
{BLKREFS
331
282
102
}
 70
     0
280
     1
281
     0
  0
BLOCK_RECORD
  5
289
330
1
100
AcDbSymbolTableRecord
100
AcDbBlockTableRecord
  2
block 88
340
0
102
{BLKREFS
331
28A
102
}
 70
     0
280
     1
281
     0
  0
BLOCK_RECORD
  5
292
330
1
100
AcDbSymbolTableRecord
100
AcDbBlockTableRecord
  2
block 89
340
0
102
{BLKREFS
331
293
102
}
 70
     0
280
     1
281
     0
  0
BLOCK_RECORD
  5
297
330
1
100
AcDbSymbolTableRecord
100
AcDbBlockTableRecord
  2
block 90
340
0
102
{BLKREFS
331
298
102
}
 70
     0
280
     1
281
     0
  0
BLOCK_RECORD
  5
29F
330
1
100
AcDbSymbolTableRecord
100
AcDbBlockTableRecord
  2
block 91
340
0
102
{BLKREFS
331
2A0
102
}
 70
     0
280
     1
281
     0
  0
BLOCK_RECORD
  5
2A7
330
1
100
AcDbSymbolTableRecord
100
AcDbBlockTableRecord
  2
block 92
340
0
102
{BLKREFS
331
2A8
102
}
 70
     0
280
     1
281
     0
  0
BLOCK_RECORD
  5
2AF
330
1
100
AcDbSymbolTableRecord
100
AcDbBlockTableRecord
  2
block 93
340
0
102
{BLKREFS
331
2B0
102
}
 70
     0
280
     1
281
     0
  0
BLOCK_RECORD
  5
2B6
330
1
100
AcDbSymbolTableRecord
100
AcDbBlockTableRecord
  2
block 94
340
0
102
{BLKREFS
331
2B7
102
}
 70
     0
280
     1
281
     0
  0
BLOCK_RECORD
  5
2BD
330
1
100
AcDbSymbolTableRecord
100
AcDbBlockTableRecord
  2
block 95
340
0
102
{BLKREFS
331
2BE
102
}
 70
     0
280
     1
281
     0
  0
BLOCK_RECORD
  5
2C5
330
1
100
AcDbSymbolTableRecord
100
AcDbBlockTableRecord
  2
block 96
340
0
102
{BLKREFS
331
2C6
102
}
 70
     0
280
     1
281
     0
  0
BLOCK_RECORD
  5
2CD
330
1
100
AcDbSymbolTableRecord
100
AcDbBlockTableRecord
  2
block 97
340
0
102
{BLKREFS
331
2CE
102
}
 70
     0
280
     1
281
     0
  0
BLOCK_RECORD
  5
2D2
330
1
100
AcDbSymbolTableRecord
100
AcDbBlockTableRecord
  2
block 98
340
0
102
{BLKREFS
331
2D3
102
}
 70
     0
280
     1
281
     0
  0
BLOCK_RECORD
  5
2D7
330
1
100
AcDbSymbolTableRecord
100
AcDbBlockTableRecord
  2
block 99
340
0
102
{BLKREFS
331
2D8
102
}
 70
     0
280
     1
281
     0
  0
BLOCK_RECORD
  5
2DF
330
1
100
AcDbSymbolTableRecord
100
AcDbBlockTableRecord
  2
block 100
340
0
102
{BLKREFS
331
2E0
102
}
 70
     0
280
     1
281
     0
  0
BLOCK_RECORD
  5
2E6
330
1
100
AcDbSymbolTableRecord
100
AcDbBlockTableRecord
  2
block 101
340
0
102
{BLKREFS
331
2E7
102
}
 70
     0
280
     1
281
     0
  0
BLOCK_RECORD
  5
2ED
330
1
100
AcDbSymbolTableRecord
100
AcDbBlockTableRecord
  2
block 102
340
0
102
{BLKREFS
331
2EE
102
}
 70
     0
280
     1
281
     0
  0
BLOCK_RECORD
  5
2F5
330
1
100
AcDbSymbolTableRecord
100
AcDbBlockTableRecord
  2
block 103
340
0
102
{BLKREFS
331
2F6
102
}
 70
     0
280
     1
281
     0
  0
BLOCK_RECORD
  5
2FD
330
1
100
AcDbSymbolTableRecord
100
AcDbBlockTableRecord
  2
block 104
340
0
102
{BLKREFS
331
2FE
102
}
 70
     0
280
     1
281
     0
  0
BLOCK_RECORD
  5
305
330
1
100
AcDbSymbolTableRecord
100
AcDbBlockTableRecord
  2
block 105
340
0
102
{BLKREFS
331
306
102
}
 70
     0
280
     1
281
     0
  0
BLOCK_RECORD
  5
30D
330
1
100
AcDbSymbolTableRecord
100
AcDbBlockTableRecord
  2
block 106
340
0
102
{BLKREFS
331
30E
102
}
 70
     0
280
     1
281
     0
  0
BLOCK_RECORD
  5
315
330
1
100
AcDbSymbolTableRecord
100
AcDbBlockTableRecord
  2
block 107
340
0
102
{BLKREFS
331
316
102
}
 70
     0
280
     1
281
     0
  0
BLOCK_RECORD
  5
31C
330
1
100
AcDbSymbolTableRecord
100
AcDbBlockTableRecord
  2
block 108
340
0
102
{BLKREFS
331
31D
102
}
 70
     0
280
     1
281
     0
  0
BLOCK_RECORD
  5
323
330
1
100
AcDbSymbolTableRecord
100
AcDbBlockTableRecord
  2
block 109
340
0
102
{BLKREFS
331
324
102
}
 70
     0
280
     1
281
     0
  0
BLOCK_RECORD
  5
32B
330
1
100
AcDbSymbolTableRecord
100
AcDbBlockTableRecord
  2
block 110
340
0
102
{BLKREFS
331
32C
102
}
 70
     0
280
     1
281
     0
  0
BLOCK_RECORD
  5
333
330
1
100
AcDbSymbolTableRecord
100
AcDbBlockTableRecord
  2
block 111
340
0
102
{BLKREFS
331
334
102
}
 70
     0
280
     1
281
     0
  0
BLOCK_RECORD
  5
33B
330
1
100
AcDbSymbolTableRecord
100
AcDbBlockTableRecord
  2
block 112
340
0
102
{BLKREFS
331
33C
102
}
 70
     0
280
     1
281
     0
  0
BLOCK_RECORD
  5
343
330
1
100
AcDbSymbolTableRecord
100
AcDbBlockTableRecord
  2
block 113
340
0
102
{BLKREFS
331
344
102
}
 70
     0
280
     1
281
     0
  0
BLOCK_RECORD
  5
34B
330
1
100
AcDbSymbolTableRecord
100
AcDbBlockTableRecord
  2
block 114
340
0
102
{BLKREFS
331
34C
102
}
 70
     0
280
     1
281
     0
  0
BLOCK_RECORD
  5
350
330
1
100
AcDbSymbolTableRecord
100
AcDbBlockTableRecord
  2
block 115
340
0
102
{BLKREFS
331
351
102
}
 70
     0
280
     1
281
     0
  0
BLOCK_RECORD
  5
355
330
1
100
AcDbSymbolTableRecord
100
AcDbBlockTableRecord
  2
block 116
340
0
102
{BLKREFS
331
356
102
}
 70
     0
280
     1
281
     0
  0
BLOCK_RECORD
  5
35C
330
1
100
AcDbSymbolTableRecord
100
AcDbBlockTableRecord
  2
block 117
340
0
102
{BLKREFS
331
35D
102
}
 70
     0
280
     1
281
     0
  0
BLOCK_RECORD
  5
361
330
1
100
AcDbSymbolTableRecord
100
AcDbBlockTableRecord
  2
block 118
340
0
102
{BLKREFS
331
362
102
}
 70
     0
280
     1
281
     0
  0
BLOCK_RECORD
  5
368
330
1
100
AcDbSymbolTableRecord
100
AcDbBlockTableRecord
  2
block 119
340
0
102
{BLKREFS
331
369
102
}
 70
     0
280
     1
281
     0
  0
BLOCK_RECORD
  5
36D
330
1
100
AcDbSymbolTableRecord
100
AcDbBlockTableRecord
  2
block 120
340
0
102
{BLKREFS
331
36E
102
}
 70
     0
280
     1
281
     0
  0
BLOCK_RECORD
  5
372
330
1
100
AcDbSymbolTableRecord
100
AcDbBlockTableRecord
  2
block 121
340
0
102
{BLKREFS
331
373
102
}
 70
     0
280
     1
281
     0
  0
BLOCK_RECORD
  5
37B
330
1
100
AcDbSymbolTableRecord
100
AcDbBlockTableRecord
  2
block 122
340
0
102
{BLKREFS
331
37C
102
}
 70
     0
280
     1
281
     0
  0
BLOCK_RECORD
  5
383
330
1
100
AcDbSymbolTableRecord
100
AcDbBlockTableRecord
  2
block 123
340
0
102
{BLKREFS
331
384
102
}
 70
     0
280
     1
281
     0
  0
BLOCK_RECORD
  5
38B
330
1
100
AcDbSymbolTableRecord
100
AcDbBlockTableRecord
  2
block 124
340
0
102
{BLKREFS
331
38C
102
}
 70
     0
280
     1
281
     0
  0
BLOCK_RECORD
  5
393
330
1
100
AcDbSymbolTableRecord
100
AcDbBlockTableRecord
  2
block 125
340
0
102
{BLKREFS
331
394
102
}
 70
     0
280
     1
281
     0
  0
BLOCK_RECORD
  5
39B
330
1
100
AcDbSymbolTableRecord
100
AcDbBlockTableRecord
  2
block 126
340
0
102
{BLKREFS
331
39C
102
}
 70
     0
280
     1
281
     0
  0
BLOCK_RECORD
  5
3A7
330
1
100
AcDbSymbolTableRecord
100
AcDbBlockTableRecord
  2
block 127
340
0
102
{BLKREFS
331
3A8
102
}
 70
     0
280
     1
281
     0
  0
BLOCK_RECORD
  5
3AC
330
1
100
AcDbSymbolTableRecord
100
AcDbBlockTableRecord
  2
block 128
340
0
102
{BLKREFS
331
3AD
102
}
 70
     0
280
     1
281
     0
  0
BLOCK_RECORD
  5
3B6
330
1
100
AcDbSymbolTableRecord
100
AcDbBlockTableRecord
  2
block 129
340
0
102
{BLKREFS
331
3B7
102
}
 70
     0
280
     1
281
     0
  0
BLOCK_RECORD
  5
3BE
330
1
100
AcDbSymbolTableRecord
100
AcDbBlockTableRecord
  2
block 130
340
0
102
{BLKREFS
331
3BF
102
}
 70
     0
280
     1
281
     0
  0
BLOCK_RECORD
  5
3C6
330
1
100
AcDbSymbolTableRecord
100
AcDbBlockTableRecord
  2
block 131
340
0
102
{BLKREFS
331
3C7
102
}
 70
     0
280
     1
281
     0
  0
BLOCK_RECORD
  5
3CE
330
1
100
AcDbSymbolTableRecord
100
AcDbBlockTableRecord
  2
block 132
340
0
102
{BLKREFS
331
3CF
102
}
 70
     0
280
     1
281
     0
  0
BLOCK_RECORD
  5
3D6
330
1
100
AcDbSymbolTableRecord
100
AcDbBlockTableRecord
  2
block 133
340
0
102
{BLKREFS
331
3D7
102
}
 70
     0
280
     1
281
     0
  0
BLOCK_RECORD
  5
3E6
330
1
100
AcDbSymbolTableRecord
100
AcDbBlockTableRecord
  2
block 134
340
0
102
{BLKREFS
331
3E7
102
}
 70
     0
280
     1
281
     0
  0
BLOCK_RECORD
  5
3EE
330
1
100
AcDbSymbolTableRecord
100
AcDbBlockTableRecord
  2
block 135
340
0
102
{BLKREFS
331
3EF
102
}
 70
     0
280
     1
281
     0
  0
BLOCK_RECORD
  5
3F6
330
1
100
AcDbSymbolTableRecord
100
AcDbBlockTableRecord
  2
block 136
340
0
102
{BLKREFS
331
3F7
102
}
 70
     0
280
     1
281
     0
  0
BLOCK_RECORD
  5
3FE
330
1
100
AcDbSymbolTableRecord
100
AcDbBlockTableRecord
  2
block 137
340
0
102
{BLKREFS
331
3FF
102
}
 70
     0
280
     1
281
     0
  0
BLOCK_RECORD
  5
40A
330
1
100
AcDbSymbolTableRecord
100
AcDbBlockTableRecord
  2
block 138
340
0
102
{BLKREFS
331
40B
102
}
 70
     0
280
     1
281
     0
  0
BLOCK_RECORD
  5
411
330
1
100
AcDbSymbolTableRecord
100
AcDbBlockTableRecord
  2
block 139
340
0
102
{BLKREFS
331
412
102
}
 70
     0
280
     1
281
     0
  0
BLOCK_RECORD
  5
416
330
1
100
AcDbSymbolTableRecord
100
AcDbBlockTableRecord
  2
block 140
340
0
102
{BLKREFS
331
417
102
}
 70
     0
280
     1
281
     0
  0
BLOCK_RECORD
  5
41C
330
1
100
AcDbSymbolTableRecord
100
AcDbBlockTableRecord
  2
block 141
340
0
102
{BLKREFS
331
41D
102
}
 70
     0
280
     1
281
     0
  0
BLOCK_RECORD
  5
421
330
1
100
AcDbSymbolTableRecord
100
AcDbBlockTableRecord
  2
block 142
340
0
102
{BLKREFS
331
422
102
}
 70
     0
280
     1
281
     0
  0
BLOCK_RECORD
  5
429
330
1
100
AcDbSymbolTableRecord
100
AcDbBlockTableRecord
  2
block 143
340
0
102
{BLKREFS
331
42A
102
}
 70
     0
280
     1
281
     0
  0
BLOCK_RECORD
  5
431
330
1
100
AcDbSymbolTableRecord
100
AcDbBlockTableRecord
  2
block 144
340
0
102
{BLKREFS
331
432
102
}
 70
     0
280
     1
281
     0
  0
BLOCK_RECORD
  5
439
330
1
100
AcDbSymbolTableRecord
100
AcDbBlockTableRecord
  2
block 145
340
0
102
{BLKREFS
331
43A
102
}
 70
     0
280
     1
281
     0
  0
BLOCK_RECORD
  5
441
330
1
100
AcDbSymbolTableRecord
100
AcDbBlockTableRecord
  2
block 146
340
0
102
{BLKREFS
331
442
102
}
 70
     0
280
     1
281
     0
  0
BLOCK_RECORD
  5
448
330
1
100
AcDbSymbolTableRecord
100
AcDbBlockTableRecord
  2
block 147
340
0
102
{BLKREFS
331
449
102
}
 70
     0
280
     1
281
     0
  0
BLOCK_RECORD
  5
44F
330
1
100
AcDbSymbolTableRecord
100
AcDbBlockTableRecord
  2
block 148
340
0
102
{BLKREFS
331
450
102
}
 70
     0
280
     1
281
     0
  0
BLOCK_RECORD
  5
457
330
1
100
AcDbSymbolTableRecord
100
AcDbBlockTableRecord
  2
block 149
340
0
102
{BLKREFS
331
458
102
}
 70
     0
280
     1
281
     0
  0
BLOCK_RECORD
  5
45F
330
1
100
AcDbSymbolTableRecord
100
AcDbBlockTableRecord
  2
block 150
340
0
102
{BLKREFS
331
460
102
}
 70
     0
280
     1
281
     0
  0
BLOCK_RECORD
  5
464
330
1
100
AcDbSymbolTableRecord
100
AcDbBlockTableRecord
  2
block 151
340
0
102
{BLKREFS
331
465
102
}
 70
     0
280
     1
281
     0
  0
BLOCK_RECORD
  5
46B
330
1
100
AcDbSymbolTableRecord
100
AcDbBlockTableRecord
  2
block 152
340
0
102
{BLKREFS
331
46C
102
}
 70
     0
280
     1
281
     0
  0
BLOCK_RECORD
  5
474
330
1
100
AcDbSymbolTableRecord
100
AcDbBlockTableRecord
  2
block 153
340
0
102
{BLKREFS
331
475
102
}
 70
     0
280
     1
281
     0
  0
BLOCK_RECORD
  5
47C
330
1
100
AcDbSymbolTableRecord
100
AcDbBlockTableRecord
  2
block 154
340
0
102
{BLKREFS
331
47D
102
}
 70
     0
280
     1
281
     0
  0
BLOCK_RECORD
  5
484
330
1
100
AcDbSymbolTableRecord
100
AcDbBlockTableRecord
  2
block 155
340
0
102
{BLKREFS
331
485
102
}
 70
     0
280
     1
281
     0
  0
BLOCK_RECORD
  5
48C
330
1
100
AcDbSymbolTableRecord
100
AcDbBlockTableRecord
  2
block 156
340
0
102
{BLKREFS
331
48D
102
}
 70
     0
280
     1
281
     0
  0
BLOCK_RECORD
  5
499
330
1
100
AcDbSymbolTableRecord
100
AcDbBlockTableRecord
  2
block 157
340
0
102
{BLKREFS
331
49A
102
}
 70
     0
280
     1
281
     0
  0
BLOCK_RECORD
  5
49E
330
1
100
AcDbSymbolTableRecord
100
AcDbBlockTableRecord
  2
block 158
340
0
102
{BLKREFS
331
49F
102
}
 70
     0
280
     1
281
     0
  0
BLOCK_RECORD
  5
4A6
330
1
100
AcDbSymbolTableRecord
100
AcDbBlockTableRecord
  2
block 159
340
0
102
{BLKREFS
331
4A7
102
}
 70
     0
280
     1
281
     0
  0
BLOCK_RECORD
  5
4AE
330
1
100
AcDbSymbolTableRecord
100
AcDbBlockTableRecord
  2
block 160
340
0
102
{BLKREFS
331
4AF
102
}
 70
     0
280
     1
281
     0
  0
BLOCK_RECORD
  5
4B6
330
1
100
AcDbSymbolTableRecord
100
AcDbBlockTableRecord
  2
block 161
340
0
102
{BLKREFS
331
4B7
102
}
 70
     0
280
     1
281
     0
  0
BLOCK_RECORD
  5
4BE
330
1
100
AcDbSymbolTableRecord
100
AcDbBlockTableRecord
  2
block 162
340
0
102
{BLKREFS
331
4BF
102
}
 70
     0
280
     1
281
     0
  0
BLOCK_RECORD
  5
4C6
330
1
100
AcDbSymbolTableRecord
100
AcDbBlockTableRecord
  2
block 163
340
0
102
{BLKREFS
331
4C7
102
}
 70
     0
280
     1
281
     0
  0
BLOCK_RECORD
  5
4D6
330
1
100
AcDbSymbolTableRecord
100
AcDbBlockTableRecord
  2
block 164
340
0
102
{BLKREFS
331
4D7
102
}
 70
     0
280
     1
281
     0
  0
BLOCK_RECORD
  5
4DE
330
1
100
AcDbSymbolTableRecord
100
AcDbBlockTableRecord
  2
block 165
340
0
102
{BLKREFS
331
4DF
102
}
 70
     0
280
     1
281
     0
  0
BLOCK_RECORD
  5
4E6
330
1
100
AcDbSymbolTableRecord
100
AcDbBlockTableRecord
  2
block 166
340
0
102
{BLKREFS
331
4E7
102
}
 70
     0
280
     1
281
     0
  0
BLOCK_RECORD
  5
4EE
330
1
100
AcDbSymbolTableRecord
100
AcDbBlockTableRecord
  2
block 167
340
0
102
{BLKREFS
331
4EF
102
}
 70
     0
280
     1
281
     0
  0
BLOCK_RECORD
  5
4F6
330
1
100
AcDbSymbolTableRecord
100
AcDbBlockTableRecord
  2
block 168
340
0
102
{BLKREFS
331
4F7
102
}
 70
     0
280
     1
281
     0
  0
BLOCK_RECORD
  5
4FE
330
1
100
AcDbSymbolTableRecord
100
AcDbBlockTableRecord
  2
block 169
340
0
102
{BLKREFS
331
4FF
102
}
 70
     0
280
     1
281
     0
  0
BLOCK_RECORD
  5
506
330
1
100
AcDbSymbolTableRecord
100
AcDbBlockTableRecord
  2
block 170
340
0
102
{BLKREFS
331
507
102
}
 70
     0
280
     1
281
     0
  0
BLOCK_RECORD
  5
50E
330
1
100
AcDbSymbolTableRecord
100
AcDbBlockTableRecord
  2
block 171
340
0
102
{BLKREFS
331
50F
102
}
 70
     0
280
     1
281
     0
  0
BLOCK_RECORD
  5
516
330
1
100
AcDbSymbolTableRecord
100
AcDbBlockTableRecord
  2
block 172
340
0
102
{BLKREFS
331
517
102
}
 70
     0
280
     1
281
     0
  0
BLOCK_RECORD
  5
51E
330
1
100
AcDbSymbolTableRecord
100
AcDbBlockTableRecord
  2
block 173
340
0
102
{BLKREFS
331
51F
102
}
 70
     0
280
     1
281
     0
  0
BLOCK_RECORD
  5
53A
330
1
100
AcDbSymbolTableRecord
100
AcDbBlockTableRecord
  2
block 174
340
0
102
{BLKREFS
331
53B
102
}
 70
     0
280
     1
281
     0
  0
BLOCK_RECORD
  5
546
330
1
100
AcDbSymbolTableRecord
100
AcDbBlockTableRecord
  2
block 175
340
0
102
{BLKREFS
331
547
102
}
 70
     0
280
     1
281
     0
  0
BLOCK_RECORD
  5
54E
330
1
100
AcDbSymbolTableRecord
100
AcDbBlockTableRecord
  2
block 176
340
0
102
{BLKREFS
331
54F
102
}
 70
     0
280
     1
281
     0
  0
BLOCK_RECORD
  5
556
330
1
100
AcDbSymbolTableRecord
100
AcDbBlockTableRecord
  2
block 177
340
0
102
{BLKREFS
331
557
102
}
 70
     0
280
     1
281
     0
  0
BLOCK_RECORD
  5
55E
330
1
100
AcDbSymbolTableRecord
100
AcDbBlockTableRecord
  2
block 178
340
0
102
{BLKREFS
331
55F
102
}
 70
     0
280
     1
281
     0
  0
BLOCK_RECORD
  5
566
330
1
100
AcDbSymbolTableRecord
100
AcDbBlockTableRecord
  2
block 179
340
0
102
{BLKREFS
331
567
102
}
 70
     0
280
     1
281
     0
  0
BLOCK_RECORD
  5
56E
330
1
100
AcDbSymbolTableRecord
100
AcDbBlockTableRecord
  2
block 180
340
0
102
{BLKREFS
331
56F
102
}
 70
     0
280
     1
281
     0
  0
BLOCK_RECORD
  5
576
330
1
100
AcDbSymbolTableRecord
100
AcDbBlockTableRecord
  2
block 181
340
0
102
{BLKREFS
331
577
102
}
 70
     0
280
     1
281
     0
  0
BLOCK_RECORD
  5
586
330
1
100
AcDbSymbolTableRecord
100
AcDbBlockTableRecord
  2
block 182
340
0
102
{BLKREFS
331
587
102
}
 70
     0
280
     1
281
     0
  0
BLOCK_RECORD
  5
58E
330
1
100
AcDbSymbolTableRecord
100
AcDbBlockTableRecord
  2
block 183
340
0
102
{BLKREFS
331
58F
102
}
 70
     0
280
     1
281
     0
  0
BLOCK_RECORD
  5
596
330
1
100
AcDbSymbolTableRecord
100
AcDbBlockTableRecord
  2
block 184
340
0
102
{BLKREFS
331
597
102
}
 70
     0
280
     1
281
     0
  0
BLOCK_RECORD
  5
59E
330
1
100
AcDbSymbolTableRecord
100
AcDbBlockTableRecord
  2
block 185
340
0
102
{BLKREFS
331
59F
102
}
 70
     0
280
     1
281
     0
  0
BLOCK_RECORD
  5
5A6
330
1
100
AcDbSymbolTableRecord
100
AcDbBlockTableRecord
  2
block 186
340
0
102
{BLKREFS
331
5A7
102
}
 70
     0
280
     1
281
     0
  0
BLOCK_RECORD
  5
5AE
330
1
100
AcDbSymbolTableRecord
100
AcDbBlockTableRecord
  2
block 187
340
0
102
{BLKREFS
331
5AF
102
}
 70
     0
280
     1
281
     0
  0
BLOCK_RECORD
  5
5B6
330
1
100
AcDbSymbolTableRecord
100
AcDbBlockTableRecord
  2
block 188
340
0
102
{BLKREFS
331
5B7
102
}
 70
     0
280
     1
281
     0
  0
BLOCK_RECORD
  5
5BD
330
1
100
AcDbSymbolTableRecord
100
AcDbBlockTableRecord
  2
block 189
340
0
102
{BLKREFS
331
5BE
102
}
 70
     0
280
     1
281
     0
  0
BLOCK_RECORD
  5
5D0
330
1
100
AcDbSymbolTableRecord
100
AcDbBlockTableRecord
  2
block 190
340
0
102
{BLKREFS
331
5D1
102
}
 70
     0
280
     1
281
     0
  0
BLOCK_RECORD
  5
5D7
330
1
100
AcDbSymbolTableRecord
100
AcDbBlockTableRecord
  2
block 191
340
0
102
{BLKREFS
331
5D8
102
}
 70
     0
280
     1
281
     0
  0
BLOCK_RECORD
  5
5E2
330
1
100
AcDbSymbolTableRecord
100
AcDbBlockTableRecord
  2
block 192
340
0
102
{BLKREFS
331
5E3
102
}
 70
     0
280
     1
281
     0
  0
BLOCK_RECORD
  5
5EA
330
1
100
AcDbSymbolTableRecord
100
AcDbBlockTableRecord
  2
block 193
340
0
102
{BLKREFS
331
5EB
102
}
 70
     0
280
     1
281
     0
  0
BLOCK_RECORD
  5
5F2
330
1
100
AcDbSymbolTableRecord
100
AcDbBlockTableRecord
  2
block 194
340
0
102
{BLKREFS
331
5F3
102
}
 70
     0
280
     1
281
     0
  0
BLOCK_RECORD
  5
5FA
330
1
100
AcDbSymbolTableRecord
100
AcDbBlockTableRecord
  2
block 195
340
0
102
{BLKREFS
331
5FB
102
}
 70
     0
280
     1
281
     0
  0
BLOCK_RECORD
  5
602
330
1
100
AcDbSymbolTableRecord
100
AcDbBlockTableRecord
  2
block 196
340
0
102
{BLKREFS
331
603
102
}
 70
     0
280
     1
281
     0
  0
BLOCK_RECORD
  5
60A
330
1
100
AcDbSymbolTableRecord
100
AcDbBlockTableRecord
  2
block 197
340
0
102
{BLKREFS
331
60B
102
}
 70
     0
280
     1
281
     0
  0
BLOCK_RECORD
  5
612
330
1
100
AcDbSymbolTableRecord
100
AcDbBlockTableRecord
  2
block 198
340
0
102
{BLKREFS
331
613
102
}
 70
     0
280
     1
281
     0
  0
BLOCK_RECORD
  5
61A
330
1
100
AcDbSymbolTableRecord
100
AcDbBlockTableRecord
  2
block 199
340
0
102
{BLKREFS
331
61B
102
}
 70
     0
280
     1
281
     0
  0
BLOCK_RECORD
  5
622
330
1
100
AcDbSymbolTableRecord
100
AcDbBlockTableRecord
  2
block 200
340
0
102
{BLKREFS
331
623
102
}
 70
     0
280
     1
281
     0
  0
BLOCK_RECORD
  5
62A
330
1
100
AcDbSymbolTableRecord
100
AcDbBlockTableRecord
  2
block 201
340
0
102
{BLKREFS
331
62B
102
}
 70
     0
280
     1
281
     0
  0
BLOCK_RECORD
  5
632
330
1
100
AcDbSymbolTableRecord
100
AcDbBlockTableRecord
  2
block 202
340
0
102
{BLKREFS
331
633
102
}
 70
     0
280
     1
281
     0
  0
BLOCK_RECORD
  5
63A
330
1
100
AcDbSymbolTableRecord
100
AcDbBlockTableRecord
  2
block 203
340
0
102
{BLKREFS
331
63B
102
}
 70
     0
280
     1
281
     0
  0
BLOCK_RECORD
  5
642
330
1
100
AcDbSymbolTableRecord
100
AcDbBlockTableRecord
  2
block 204
340
0
102
{BLKREFS
331
643
102
}
 70
     0
280
     1
281
     0
  0
BLOCK_RECORD
  5
64A
330
1
100
AcDbSymbolTableRecord
100
AcDbBlockTableRecord
  2
block 205
340
0
102
{BLKREFS
331
64B
102
}
 70
     0
280
     1
281
     0
  0
BLOCK_RECORD
  5
652
330
1
100
AcDbSymbolTableRecord
100
AcDbBlockTableRecord
  2
block 206
340
0
102
{BLKREFS
331
653
102
}
 70
     0
280
     1
281
     0
  0
BLOCK_RECORD
  5
65A
330
1
100
AcDbSymbolTableRecord
100
AcDbBlockTableRecord
  2
block 207
340
0
102
{BLKREFS
331
65B
102
}
 70
     0
280
     1
281
     0
  0
BLOCK_RECORD
  5
662
330
1
100
AcDbSymbolTableRecord
100
AcDbBlockTableRecord
  2
block 208
340
0
102
{BLKREFS
331
663
102
}
 70
     0
280
     1
281
     0
  0
BLOCK_RECORD
  5
66A
330
1
100
AcDbSymbolTableRecord
100
AcDbBlockTableRecord
  2
block 209
340
0
102
{BLKREFS
331
66B
102
}
 70
     0
280
     1
281
     0
  0
BLOCK_RECORD
  5
672
330
1
100
AcDbSymbolTableRecord
100
AcDbBlockTableRecord
  2
block 210
340
0
102
{BLKREFS
331
673
102
}
 70
     0
280
     1
281
     0
  0
BLOCK_RECORD
  5
67A
330
1
100
AcDbSymbolTableRecord
100
AcDbBlockTableRecord
  2
block 211
340
0
102
{BLKREFS
331
67B
102
}
 70
     0
280
     1
281
     0
  0
BLOCK_RECORD
  5
682
330
1
100
AcDbSymbolTableRecord
100
AcDbBlockTableRecord
  2
block 212
340
0
102
{BLKREFS
331
683
102
}
 70
     0
280
     1
281
     0
  0
BLOCK_RECORD
  5
68A
330
1
100
AcDbSymbolTableRecord
100
AcDbBlockTableRecord
  2
block 213
340
0
102
{BLKREFS
331
68B
102
}
 70
     0
280
     1
281
     0
  0
BLOCK_RECORD
  5
693
330
1
100
AcDbSymbolTableRecord
100
AcDbBlockTableRecord
  2
block 214
340
0
102
{BLKREFS
331
694
102
}
 70
     0
280
     1
281
     0
  0
BLOCK_RECORD
  5
6A0
330
1
100
AcDbSymbolTableRecord
100
AcDbBlockTableRecord
  2
block 215
340
0
102
{BLKREFS
331
6A1
102
}
 70
     0
280
     1
281
     0
  0
BLOCK_RECORD
  5
6C0
330
1
100
AcDbSymbolTableRecord
100
AcDbBlockTableRecord
  2
block 216
340
0
102
{BLKREFS
331
6C1
102
}
 70
     0
280
     1
281
     0
  0
ENDTAB
  0
ENDSEC
  0
SECTION
  2
BLOCKS
  0
BLOCK
  5
20
330
1F
100
AcDbEntity
  8
0
100
AcDbBlockBegin
  2
*Model_Space
 70
     0
 10
0.0
 20
0.0
 30
0.0
  3
*Model_Space
  1

  0
ENDBLK
  5
21
330
1F
100
AcDbEntity
  8
0
100
AcDbBlockEnd
  0
BLOCK
  5
1C
330
1B
100
AcDbEntity
 67
     1
  8
0
100
AcDbBlockBegin
  2
*Paper_Space
 70
     0
 10
0.0
 20
0.0
 30
0.0
  3
*Paper_Space
  1

  0
ENDBLK
  5
1D
330
1B
100
AcDbEntity
 67
     1
  8
0
100
AcDbBlockEnd
  0
BLOCK
  5
24
330
23
100
AcDbEntity
  8
0
100
AcDbBlockBegin
  2
*Paper_Space0
 70
     0
 10
0.0
 20
0.0
 30
0.0
  3
*Paper_Space0
  1

  0
ENDBLK
  5
25
330
23
100
AcDbEntity
  8
0
100
AcDbBlockEnd
  0
BLOCK
  5
43
330
41
100
AcDbEntity
  8
0
100
AcDbBlockBegin
  2
block 2
 70
     0
 10
0.0
 20
0.0
 30
0.0
  3
block 2
  1

  0
INSERT
  5
46
330
41
100
AcDbEntity
  8
Exterieur
100
AcDbBlockReference
  2
block 3
 10
0.0
 20
0.0
 30
0.0
  0
INSERT
  5
4D
330
41
100
AcDbEntity
  8
Exterieur
100
AcDbBlockReference
  2
block 4
 10
0.0
 20
0.0
 30
0.0
  0
INSERT
  5
54
330
41
100
AcDbEntity
  8
Exterieur
100
AcDbBlockReference
  2
block 5
 10
0.0
 20
0.0
 30
0.0
  0
INSERT
  5
5B
330
41
100
AcDbEntity
  8
Exterieur
100
AcDbBlockReference
  2
block 6
 10
0.0
 20
0.0
 30
0.0
  0
INSERT
  5
62
330
41
100
AcDbEntity
  8
Exterieur
100
AcDbBlockReference
  2
block 7
 10
0.0
 20
0.0
 30
0.0
  0
INSERT
  5
67
330
41
100
AcDbEntity
  8
Exterieur
100
AcDbBlockReference
  2
block 8
 10
0.0
 20
0.0
 30
0.0
  0
INSERT
  5
6F
330
41
100
AcDbEntity
  8
Exterieur
100
AcDbBlockReference
  2
block 9
 10
0.0
 20
0.0
 30
0.0
  0
INSERT
  5
74
330
41
100
AcDbEntity
  8
Exterieur
100
AcDbBlockReference
  2
block 10
 10
0.0
 20
0.0
 30
0.0
  0
INSERT
  5
7C
330
41
100
AcDbEntity
  8
Exterieur
100
AcDbBlockReference
  2
block 11
 10
0.0
 20
0.0
 30
0.0
  0
INSERT
  5
81
330
41
100
AcDbEntity
  8
Exterieur
100
AcDbBlockReference
  2
block 12
 10
0.0
 20
0.0
 30
0.0
  0
INSERT
  5
89
330
41
100
AcDbEntity
  8
Exterieur
100
AcDbBlockReference
  2
block 13
 10
0.0
 20
0.0
 30
0.0
  0
INSERT
  5
8E
330
41
100
AcDbEntity
  8
Exterieur
100
AcDbBlockReference
  2
block 14
 10
0.0
 20
0.0
 30
0.0
  0
INSERT
  5
96
330
41
100
AcDbEntity
  8
Exterieur
100
AcDbBlockReference
  2
block 15
 10
0.0
 20
0.0
 30
0.0
  0
INSERT
  5
9B
330
41
100
AcDbEntity
  8
Exterieur
100
AcDbBlockReference
  2
block 16
 10
0.0
 20
0.0
 30
0.0
  0
INSERT
  5
A0
330
41
100
AcDbEntity
  8
Exterieur
100
AcDbBlockReference
  2
block 17
 10
0.0
 20
0.0
 30
0.0
  0
INSERT
  5
A8
330
41
100
AcDbEntity
  8
Exterieur
100
AcDbBlockReference
  2
block 18
 10
0.0
 20
0.0
 30
0.0
  0
INSERT
  5
B0
330
41
100
AcDbEntity
  8
Exterieur
100
AcDbBlockReference
  2
block 19
 10
0.0
 20
0.0
 30
0.0
  0
INSERT
  5
B8
330
41
100
AcDbEntity
  8
Exterieur
100
AcDbBlockReference
  2
block 20
 10
0.0
 20
0.0
 30
0.0
  0
INSERT
  5
C0
330
41
100
AcDbEntity
  8
Exterieur
100
AcDbBlockReference
  2
block 21
 10
0.0
 20
0.0
 30
0.0
  0
INSERT
  5
C5
330
41
100
AcDbEntity
  8
Exterieur
100
AcDbBlockReference
  2
block 22
 10
0.0
 20
0.0
 30
0.0
  0
INSERT
  5
CD
330
41
100
AcDbEntity
  8
Exterieur
100
AcDbBlockReference
  2
block 23
 10
0.0
 20
0.0
 30
0.0
  0
INSERT
  5
D5
330
41
100
AcDbEntity
  8
Exterieur
100
AcDbBlockReference
  2
block 24
 10
0.0
 20
0.0
 30
0.0
  0
INSERT
  5
DA
330
41
100
AcDbEntity
  8
Exterieur
100
AcDbBlockReference
  2
block 25
 10
0.0
 20
0.0
 30
0.0
  0
INSERT
  5
E2
330
41
100
AcDbEntity
  8
Exterieur
100
AcDbBlockReference
  2
block 26
 10
0.0
 20
0.0
 30
0.0
  0
INSERT
  5
EA
330
41
100
AcDbEntity
  8
Exterieur
100
AcDbBlockReference
  2
block 27
 10
0.0
 20
0.0
 30
0.0
  0
INSERT
  5
F2
330
41
100
AcDbEntity
  8
Exterieur
100
AcDbBlockReference
  2
block 28
 10
0.0
 20
0.0
 30
0.0
  0
INSERT
  5
FA
330
41
100
AcDbEntity
  8
Exterieur
100
AcDbBlockReference
  2
block 29
 10
0.0
 20
0.0
 30
0.0
  0
INSERT
  5
FF
330
41
100
AcDbEntity
  8
Exterieur
100
AcDbBlockReference
  2
block 30
 10
0.0
 20
0.0
 30
0.0
  0
INSERT
  5
104
330
41
100
AcDbEntity
  8
Exterieur
100
AcDbBlockReference
  2
block 31
 10
0.0
 20
0.0
 30
0.0
  0
INSERT
  5
10C
330
41
100
AcDbEntity
  8
Exterieur
100
AcDbBlockReference
  2
block 32
 10
0.0
 20
0.0
 30
0.0
  0
INSERT
  5
113
330
41
100
AcDbEntity
  8
Exterieur
100
AcDbBlockReference
  2
block 33
 10
0.0
 20
0.0
 30
0.0
  0
INSERT
  5
11A
330
41
100
AcDbEntity
  8
Exterieur
100
AcDbBlockReference
  2
block 34
 10
0.0
 20
0.0
 30
0.0
  0
INSERT
  5
121
330
41
100
AcDbEntity
  8
Exterieur
100
AcDbBlockReference
  2
block 35
 10
0.0
 20
0.0
 30
0.0
  0
INSERT
  5
128
330
41
100
AcDbEntity
  8
Exterieur
100
AcDbBlockReference
  2
block 36
 10
0.0
 20
0.0
 30
0.0
  0
INSERT
  5
132
330
41
100
AcDbEntity
  8
Exterieur
100
AcDbBlockReference
  2
block 37
 10
0.0
 20
0.0
 30
0.0
  0
ENDBLK
  5
44
330
41
100
AcDbEntity
  8
0
100
AcDbBlockEnd
  0
BLOCK
  5
47
330
45
100
AcDbEntity
  8
0
100
AcDbBlockBegin
  2
block 3
 70
     0
 10
0.0
 20
0.0
 30
0.0
  3
block 3
  1

  0
POLYLINE
  5
49
330
45
100
AcDbEntity
  8
Exterieur
370
     0
100
AcDb2dPolyline
 66
     1
 10
0.0
 20
0.0
 30
0.0
  0
VERTEX
  5
4A
330
49
100
AcDbEntity
  8
Exterieur
370
     0
100
AcDbVertex
100
AcDb2dVertex
 10
247.0599266484916
 20
-260.5427675691853
 30
0.0
  0
VERTEX
  5
6C5
330
49
100
AcDbEntity
  8
0
100
AcDbVertex
100
AcDb2dVertex
 10
247.0599266484916
 20
-260.5427675691853
 30
0.0
  0
SEQEND
  5
4B
330
49
100
AcDbEntity
  8
Exterieur
370
     0
  0
ENDBLK
  5
48
330
45
100
AcDbEntity
  8
0
100
AcDbBlockEnd
  0
BLOCK
  5
4E
330
4C
100
AcDbEntity
  8
0
100
AcDbBlockBegin
  2
block 4
 70
     0
 10
0.0
 20
0.0
 30
0.0
  3
block 4
  1

  0
POLYLINE
  5
50
330
4C
100
AcDbEntity
  8
Exterieur
370
     0
100
AcDb2dPolyline
 66
     1
 10
0.0
 20
0.0
 30
0.0
  0
VERTEX
  5
51
330
50
100
AcDbEntity
  8
Exterieur
370
     0
100
AcDbVertex
100
AcDb2dVertex
 10
247.0599266484916
 20
-260.5427675691853
 30
0.0
  0
VERTEX
  5
6C6
330
50
100
AcDbEntity
  8
0
100
AcDbVertex
100
AcDb2dVertex
 10
247.0599266484916
 20
-260.5427675691853
 30
0.0
  0
SEQEND
  5
52
330
50
100
AcDbEntity
  8
Exterieur
370
     0
  0
ENDBLK
  5
4F
330
4C
100
AcDbEntity
  8
0
100
AcDbBlockEnd
  0
BLOCK
  5
55
330
53
100
AcDbEntity
  8
0
100
AcDbBlockBegin
  2
block 5
 70
     0
 10
0.0
 20
0.0
 30
0.0
  3
block 5
  1

  0
POLYLINE
  5
57
330
53
100
AcDbEntity
  8
Exterieur
370
     0
100
AcDb2dPolyline
 66
     1
 10
0.0
 20
0.0
 30
0.0
  0
VERTEX
  5
58
330
57
100
AcDbEntity
  8
Exterieur
370
     0
100
AcDbVertex
100
AcDb2dVertex
 10
289.4855524905917
 20
-90.65933604728534
 30
0.0
  0
VERTEX
  5
6C7
330
57
100
AcDbEntity
  8
0
100
AcDbVertex
100
AcDb2dVertex
 10
289.4855524905917
 20
-90.65933604728534
 30
0.0
  0
SEQEND
  5
59
330
57
100
AcDbEntity
  8
Exterieur
370
     0
  0
ENDBLK
  5
56
330
53
100
AcDbEntity
  8
0
100
AcDbBlockEnd
  0
BLOCK
  5
5C
330
5A
100
AcDbEntity
  8
0
100
AcDbBlockBegin
  2
block 6
 70
     0
 10
0.0
 20
0.0
 30
0.0
  3
block 6
  1

  0
POLYLINE
  5
5E
330
5A
100
AcDbEntity
  8
Exterieur
370
     0
100
AcDb2dPolyline
 66
     1
 10
0.0
 20
0.0
 30
0.0
  0
VERTEX
  5
5F
330
5E
100
AcDbEntity
  8
Exterieur
370
     0
100
AcDbVertex
100
AcDb2dVertex
 10
289.4855524905917
 20
-90.65933604728534
 30
0.0
  0
VERTEX
  5
6C8
330
5E
100
AcDbEntity
  8
0
100
AcDbVertex
100
AcDb2dVertex
 10
289.4855524905917
 20
-90.65933604728534
 30
0.0
  0
SEQEND
  5
60
330
5E
100
AcDbEntity
  8
Exterieur
370
     0
  0
ENDBLK
  5
5D
330
5A
100
AcDbEntity
  8
0
100
AcDbBlockEnd
  0
BLOCK
  5
63
330
61
100
AcDbEntity
  8
0
100
AcDbBlockBegin
  2
block 7
 70
     0
 10
0.0
 20
0.0
 30
0.0
  3
block 7
  1

  0
SPLINE
  5
65
330
61
100
AcDbEntity
  8
Exterieur
370
     0
100
AcDbSpline
210
0.0
220
0.0
230
1.0
 70
     8
 71
     3
 72
     8
 73
     4
 74
     0
 42
0.0000000001
 43
0.0000000001
 12
1.0
 22
0.0
 32
0.0
 13
1.0
 23
0.0
 33
0.0
 40
0.0
 40
0.0
 40
0.0
 40
0.0
 40
1.0
 40
1.0
 40
1.0
 40
1.0
 10
267.1698885462011
 20
-25.40275309525429
 30
0.0
 10
260.9818670279108
 20
-21.83009725917032
 30
0.0
 10
253.3579101532223
 20
-21.8300972837737
 30
0.0
 10
247.1698886579914
 20
-25.4027531597967
 30
0.0
  0
ENDBLK
  5
64
330
61
100
AcDbEntity
  8
0
100
AcDbBlockEnd
  0
BLOCK
  5
68
330
66
100
AcDbEntity
  8
0
100
AcDbBlockBegin
  2
block 8
 70
     0
 10
0.0
 20
0.0
 30
0.0
  3
block 8
  1

  0
POLYLINE
  5
6A
330
66
100
AcDbEntity
  8
Exterieur
370
     0
100
AcDb2dPolyline
 66
     1
 10
0.0
 20
0.0
 30
0.0
  0
VERTEX
  5
6B
330
6A
100
AcDbEntity
  8
Exterieur
370
     0
100
AcDbVertex
100
AcDb2dVertex
 10
247.1698886579914
 20
-25.40275315978547
 30
0.0
  0
VERTEX
  5
6C
330
6A
100
AcDbEntity
  8
Exterieur
370
     0
100
AcDbVertex
100
AcDb2dVertex
 10
98.79121754789135
 20
-111.0692188671853
 30
0.0
  0
SEQEND
  5
6D
330
6A
100
AcDbEntity
  8
Exterieur
370
     0
  0
ENDBLK
  5
69
330
66
100
AcDbEntity
  8
0
100
AcDbBlockEnd
  0
BLOCK
  5
70
330
6E
100
AcDbEntity
  8
0
100
AcDbBlockBegin
  2
block 9
 70
     0
 10
0.0
 20
0.0
 30
0.0
  3
block 9
  1

  0
SPLINE
  5
72
330
6E
100
AcDbEntity
  8
Exterieur
370
     0
100
AcDbSpline
210
0.0
220
0.0
230
1.0
 70
     8
 71
     3
 72
     8
 73
     4
 74
     0
 42
0.0000000001
 43
0.0000000001
 12
1.0
 22
0.0
 32
0.0
 13
1.0
 23
0.0
 33
0.0
 40
0.0
 40
0.0
 40
0.0
 40
0.0
 40
1.0
 40
1.0
 40
1.0
 40
1.0
 10
98.79121754789135
 20
-111.0692188671966
 30
0.0
 10
92.60319601272148
 20
-114.6418747662784
 30
0.0
 10
88.79121754789132
 20
-121.2444151447222
 30
0.0
 10
88.79121754789132
 20
-128.3897269428855
 30
0.0
  0
ENDBLK
  5
71
330
6E
100
AcDbEntity
  8
0
100
AcDbBlockEnd
  0
BLOCK
  5
75
330
73
100
AcDbEntity
  8
0
100
AcDbBlockBegin
  2
block 10
 70
     0
 10
0.0
 20
0.0
 30
0.0
  3
block 10
  1

  0
POLYLINE
  5
77
330
73
100
AcDbEntity
  8
Exterieur
370
     0
100
AcDb2dPolyline
 66
     1
 10
0.0
 20
0.0
 30
0.0
  0
VERTEX
  5
78
330
77
100
AcDbEntity
  8
Exterieur
370
     0
100
AcDbVertex
100
AcDb2dVertex
 10
88.79121754789132
 20
-128.3897269428855
 30
0.0
  0
VERTEX
  5
79
330
77
100
AcDbEntity
  8
Exterieur
370
     0
100
AcDbVertex
100
AcDb2dVertex
 10
88.79121754789132
 20
-168.2957161752856
 30
0.0
  0
SEQEND
  5
7A
330
77
100
AcDbEntity
  8
Exterieur
370
     0
  0
ENDBLK
  5
76
330
73
100
AcDbEntity
  8
0
100
AcDbBlockEnd
  0
BLOCK
  5
7D
330
7B
100
AcDbEntity
  8
0
100
AcDbBlockBegin
  2
block 11
 70
     0
 10
0.0
 20
0.0
 30
0.0
  3
block 11
  1

  0
SPLINE
  5
7F
330
7B
100
AcDbEntity
  8
Exterieur
370
     0
100
AcDbSpline
210
0.0
220
0.0
230
1.0
 70
     8
 71
     3
 72
     8
 73
     4
 74
     0
 42
0.0000000001
 43
0.0000000001
 12
1.0
 22
0.0
 32
0.0
 13
1.0
 23
0.0
 33
0.0
 40
0.0
 40
0.0
 40
0.0
 40
0.0
 40
1.0
 40
1.0
 40
1.0
 40
1.0
 10
88.79121754789132
 20
-168.2957161752856
 30
0.0
 10
88.79121754789132
 20
-175.4410279734485
 30
0.0
 10
92.60319601272148
 20
-182.0435683518927
 30
0.0
 10
98.79121754789135
 20
-185.6162242509742
 30
0.0
  0
ENDBLK
  5
7E
330
7B
100
AcDbEntity
  8
0
100
AcDbBlockEnd
  0
BLOCK
  5
82
330
80
100
AcDbEntity
  8
0
100
AcDbBlockBegin
  2
block 12
 70
     0
 10
0.0
 20
0.0
 30
0.0
  3
block 12
  1

  0
POLYLINE
  5
84
330
80
100
AcDbEntity
  8
Exterieur
370
     0
100
AcDb2dPolyline
 66
     1
 10
0.0
 20
0.0
 30
0.0
  0
VERTEX
  5
85
330
84
100
AcDbEntity
  8
Exterieur
370
     0
100
AcDbVertex
100
AcDb2dVertex
 10
98.79121754789135
 20
-185.6162242509858
 30
0.0
  0
VERTEX
  5
86
330
84
100
AcDbEntity
  8
Exterieur
370
     0
100
AcDbVertex
100
AcDb2dVertex
 10
247.1720166710912
 20
-271.2839185672855
 30
0.0
  0
SEQEND
  5
87
330
84
100
AcDbEntity
  8
Exterieur
370
     0
  0
ENDBLK
  5
83
330
80
100
AcDbEntity
  8
0
100
AcDbBlockEnd
  0
BLOCK
  5
8A
330
88
100
AcDbEntity
  8
0
100
AcDbBlockBegin
  2
block 13
 70
     0
 10
0.0
 20
0.0
 30
0.0
  3
block 13
  1

  0
SPLINE
  5
8C
330
88
100
AcDbEntity
  8
Exterieur
370
     0
100
AcDbSpline
210
0.0
220
0.0
230
1.0
 70
     8
 71
     3
 72
     8
 73
     4
 74
     0
 42
0.0000000001
 43
0.0000000001
 12
1.0
 22
0.0
 32
0.0
 13
1.0
 23
0.0
 33
0.0
 40
0.0
 40
0.0
 40
0.0
 40
0.0
 40
1.0
 40
1.0
 40
1.0
 40
1.0
 10
247.1720166710912
 20
-271.2839185672746
 30
0.0
 10
253.3600382062614
 20
-274.856574466356
 30
0.0
 10
260.9839951359211
 20
-274.856574466356
 30
0.0
 10
267.1720166710913
 20
-271.2839185672746
 30
0.0
  0
ENDBLK
  5
8B
330
88
100
AcDbEntity
  8
0
100
AcDbBlockEnd
  0
BLOCK
  5
8F
330
8D
100
AcDbEntity
  8
0
100
AcDbBlockBegin
  2
block 14
 70
     0
 10
0.0
 20
0.0
 30
0.0
  3
block 14
  1

  0
POLYLINE
  5
91
330
8D
100
AcDbEntity
  8
Exterieur
370
     0
100
AcDb2dPolyline
 66
     1
 10
0.0
 20
0.0
 30
0.0
  0
VERTEX
  5
92
330
91
100
AcDbEntity
  8
Exterieur
370
     0
100
AcDbVertex
100
AcDb2dVertex
 10
267.1720166710913
 20
-271.2839185672855
 30
0.0
  0
VERTEX
  5
93
330
91
100
AcDbEntity
  8
Exterieur
370
     0
100
AcDbVertex
100
AcDb2dVertex
 10
301.7316171094915
 20
-251.3309239510854
 30
0.0
  0
SEQEND
  5
94
330
91
100
AcDbEntity
  8
Exterieur
370
     0
  0
ENDBLK
  5
90
330
8D
100
AcDbEntity
  8
0
100
AcDbBlockEnd
  0
BLOCK
  5
97
330
95
100
AcDbEntity
  8
0
100
AcDbBlockBegin
  2
block 15
 70
     0
 10
0.0
 20
0.0
 30
0.0
  3
block 15
  1

  0
SPLINE
  5
99
330
95
100
AcDbEntity
  8
Exterieur
370
     0
100
AcDbSpline
210
0.0
220
0.0
230
1.0
 70
     8
 71
     3
 72
     8
 73
     4
 74
     0
 42
0.0000000001
 43
0.0000000001
 12
1.0
 22
0.0
 32
0.0
 13
1.0
 23
0.0
 33
0.0
 40
0.0
 40
0.0
 40
0.0
 40
0.0
 40
1.0
 40
1.0
 40
1.0
 40
1.0
 10
301.7316171094915
 20
-251.3309239510745
 30
0.0
 10
306.5387853626989
 20
-248.555504066045
 30
0.0
 10
309.9762809506014
 20
-243.9070851877229
 30
0.0
 10
311.2217091099508
 20
-238.4977662978111
 30
0.0
  0
ENDBLK
  5
98
330
95
100
AcDbEntity
  8
0
100
AcDbBlockEnd
  0
BLOCK
  5
9C
330
9A
100
AcDbEntity
  8
0
100
AcDbBlockBegin
  2
block 16
 70
     0
 10
0.0
 20
0.0
 30
0.0
  3
block 16
  1

  0
SPLINE
  5
9E
330
9A
100
AcDbEntity
  8
Exterieur
370
     0
100
AcDbSpline
210
0.0
220
0.0
230
1.0
 70
     8
 71
     3
 72
     8
 73
     4
 74
     0
 42
0.0000000001
 43
0.0000000001
 12
1.0
 22
0.0
 32
0.0
 13
1.0
 23
0.0
 33
0.0
 40
0.0
 40
0.0
 40
0.0
 40
0.0
 40
1.0
 40
1.0
 40
1.0
 40
1.0
 10
311.2217091099206
 20
-238.4977662977983
 30
0.0
 10
311.7890394659408
 20
-236.0336572373093
 30
0.0
 10
311.4018301717749
 20
-233.4461103201658
 30
0.0
 10
310.1380293314673
 20
-231.2560179406343
 30
0.0
  0
ENDBLK
  5
9D
330
9A
100
AcDbEntity
  8
0
100
AcDbBlockEnd
  0
BLOCK
  5
A1
330
9F
100
AcDbEntity
  8
0
100
AcDbBlockBegin
  2
block 17
 70
     0
 10
0.0
 20
0.0
 30
0.0
  3
block 17
  1

  0
POLYLINE
  5
A3
330
9F
100
AcDbEntity
  8
Exterieur
370
     0
100
AcDb2dPolyline
 66
     1
 10
0.0
 20
0.0
 30
0.0
  0
VERTEX
  5
A4
330
A3
100
AcDbEntity
  8
Exterieur
370
     0
100
AcDbVertex
100
AcDb2dVertex
 10
310.1380293314911
 20
-231.2560179406857
 30
0.0
  0
VERTEX
  5
A5
330
A3
100
AcDbEntity
  8
Exterieur
370
     0
100
AcDbVertex
100
AcDb2dVertex
 10
305.5691686447911
 20
-223.3384516168852
 30
0.0
  0
SEQEND
  5
A6
330
A3
100
AcDbEntity
  8
Exterieur
370
     0
  0
ENDBLK
  5
A2
330
9F
100
AcDbEntity
  8
0
100
AcDbBlockEnd
  0
BLOCK
  5
A9
330
A7
100
AcDbEntity
  8
0
100
AcDbBlockBegin
  2
block 18
 70
     0
 10
0.0
 20
0.0
 30
0.0
  3
block 18
  1

  0
POLYLINE
  5
AB
330
A7
100
AcDbEntity
  8
Exterieur
370
     0
100
AcDb2dPolyline
 66
     1
 10
0.0
 20
0.0
 30
0.0
  0
VERTEX
  5
AC
330
AB
100
AcDbEntity
  8
Exterieur
370
     0
100
AcDbVertex
100
AcDb2dVertex
 10
305.5691686447911
 20
-223.3384516168852
 30
0.0
  0
VERTEX
  5
AD
330
AB
100
AcDbEntity
  8
Exterieur
370
     0
100
AcDbVertex
100
AcDb2dVertex
 10
302.6818861902914
 20
-223.3384516168852
 30
0.0
  0
SEQEND
  5
AE
330
AB
100
AcDbEntity
  8
Exterieur
370
     0
  0
ENDBLK
  5
AA
330
A7
100
AcDbEntity
  8
0
100
AcDbBlockEnd
  0
BLOCK
  5
B1
330
AF
100
AcDbEntity
  8
0
100
AcDbBlockBegin
  2
block 19
 70
     0
 10
0.0
 20
0.0
 30
0.0
  3
block 19
  1

  0
POLYLINE
  5
B3
330
AF
100
AcDbEntity
  8
Exterieur
370
     0
100
AcDb2dPolyline
 66
     1
 10
0.0
 20
0.0
 30
0.0
  0
VERTEX
  5
B4
330
B3
100
AcDbEntity
  8
Exterieur
370
     0
100
AcDbVertex
100
AcDb2dVertex
 10
302.6818861902914
 20
-223.3384516168852
 30
0.0
  0
VERTEX
  5
B5
330
B3
100
AcDbEntity
  8
Exterieur
370
     0
100
AcDbVertex
100
AcDb2dVertex
 10
302.6818861902914
 20
-218.3349612730854
 30
0.0
  0
SEQEND
  5
B6
330
B3
100
AcDbEntity
  8
Exterieur
370
     0
  0
ENDBLK
  5
B2
330
AF
100
AcDbEntity
  8
0
100
AcDbBlockEnd
  0
BLOCK
  5
B9
330
B7
100
AcDbEntity
  8
0
100
AcDbBlockBegin
  2
block 20
 70
     0
 10
0.0
 20
0.0
 30
0.0
  3
block 20
  1

  0
POLYLINE
  5
BB
330
B7
100
AcDbEntity
  8
Exterieur
370
     0
100
AcDb2dPolyline
 66
     1
 10
0.0
 20
0.0
 30
0.0
  0
VERTEX
  5
BC
330
BB
100
AcDbEntity
  8
Exterieur
370
     0
100
AcDbVertex
100
AcDb2dVertex
 10
302.6818861902914
 20
-218.3349612730854
 30
0.0
  0
VERTEX
  5
BD
330
BB
100
AcDbEntity
  8
Exterieur
370
     0
100
AcDbVertex
100
AcDb2dVertex
 10
287.7602422742916
 20
-192.4766317101857
 30
0.0
  0
SEQEND
  5
BE
330
BB
100
AcDbEntity
  8
Exterieur
370
     0
  0
ENDBLK
  5
BA
330
B7
100
AcDbEntity
  8
0
100
AcDbBlockEnd
  0
BLOCK
  5
C1
330
BF
100
AcDbEntity
  8
0
100
AcDbBlockBegin
  2
block 21
 70
     0
 10
0.0
 20
0.0
 30
0.0
  3
block 21
  1

  0
SPLINE
  5
C3
330
BF
100
AcDbEntity
  8
Exterieur
370
     0
100
AcDbSpline
210
0.0
220
0.0
230
1.0
 70
     8
 71
     3
 72
     8
 73
     4
 74
     0
 42
0.0000000001
 43
0.0000000001
 12
1.0
 22
0.0
 32
0.0
 13
1.0
 23
0.0
 33
0.0
 40
0.0
 40
0.0
 40
0.0
 40
0.0
 40
1.0
 40
1.0
 40
1.0
 40
1.0
 10
283.744341124018
 20
-177.4857387724262
 30
0.0
 10
283.7449246707068
 20
-182.7484472711086
 30
0.0
 10
285.1299020558703
 20
-187.9184071195634
 30
0.0
 10
287.7602422742633
 20
-192.4766317101395
 30
0.0
  0
ENDBLK
  5
C2
330
BF
100
AcDbEntity
  8
0
100
AcDbBlockEnd
  0
BLOCK
  5
C6
330
C4
100
AcDbEntity
  8
0
100
AcDbBlockBegin
  2
block 22
 70
     0
 10
0.0
 20
0.0
 30
0.0
  3
block 22
  1

  0
POLYLINE
  5
C8
330
C4
100
AcDbEntity
  8
Exterieur
370
     0
100
AcDb2dPolyline
 66
     1
 10
0.0
 20
0.0
 30
0.0
  0
VERTEX
  5
C9
330
C8
100
AcDbEntity
  8
Exterieur
370
     0
100
AcDbVertex
100
AcDb2dVertex
 10
283.744341123991
 20
-177.4857387723852
 30
0.0
  0
VERTEX
  5
CA
330
C8
100
AcDbEntity
  8
Exterieur
370
     0
100
AcDbVertex
100
AcDb2dVertex
 10
283.7411096488917
 20
-148.3427215590859
 30
0.0
  0
SEQEND
  5
CB
330
C8
100
AcDbEntity
  8
Exterieur
370
     0
  0
ENDBLK
  5
C7
330
C4
100
AcDbEntity
  8
0
100
AcDbBlockEnd
  0
BLOCK
  5
CE
330
CC
100
AcDbEntity
  8
0
100
AcDbBlockBegin
  2
block 23
 70
     0
 10
0.0
 20
0.0
 30
0.0
  3
block 23
  1

  0
POLYLINE
  5
D0
330
CC
100
AcDbEntity
  8
Exterieur
370
     0
100
AcDb2dPolyline
 66
     1
 10
0.0
 20
0.0
 30
0.0
  0
VERTEX
  5
D1
330
D0
100
AcDbEntity
  8
Exterieur
370
     0
100
AcDbVertex
100
AcDb2dVertex
 10
283.7411096488917
 20
-148.3427215590859
 30
0.0
  0
VERTEX
  5
D2
330
D0
100
AcDbEntity
  8
Exterieur
370
     0
100
AcDbVertex
100
AcDb2dVertex
 10
283.7411096488917
 20
-119.1997041665854
 30
0.0
  0
SEQEND
  5
D3
330
D0
100
AcDbEntity
  8
Exterieur
370
     0
  0
ENDBLK
  5
CF
330
CC
100
AcDbEntity
  8
0
100
AcDbBlockEnd
  0
BLOCK
  5
D6
330
D4
100
AcDbEntity
  8
0
100
AcDbBlockBegin
  2
block 24
 70
     0
 10
0.0
 20
0.0
 30
0.0
  3
block 24
  1

  0
SPLINE
  5
D8
330
D4
100
AcDbEntity
  8
Exterieur
370
     0
100
AcDbSpline
210
0.0
220
0.0
230
1.0
 70
     8
 71
     3
 72
     8
 73
     4
 74
     0
 42
0.0000000001
 43
0.0000000001
 12
1.0
 22
0.0
 32
0.0
 13
1.0
 23
0.0
 33
0.0
 40
0.0
 40
0.0
 40
0.0
 40
0.0
 40
1.0
 40
1.0
 40
1.0
 40
1.0
 10
287.7583123909127
 20
-104.2032296925369
 30
0.0
 10
285.1265713534791
 20
-108.7629676449117
 30
0.0
 10
283.7411096488917
 20
-113.934984698044
 30
0.0
 10
283.7411096488917
 20
-119.1997041665854
 30
0.0
  0
ENDBLK
  5
D7
330
D4
100
AcDbEntity
  8
0
100
AcDbBlockEnd
  0
BLOCK
  5
DB
330
D9
100
AcDbEntity
  8
0
100
AcDbBlockBegin
  2
block 25
 70
     0
 10
0.0
 20
0.0
 30
0.0
  3
block 25
  1

  0
POLYLINE
  5
DD
330
D9
100
AcDbEntity
  8
Exterieur
370
     0
100
AcDb2dPolyline
 66
     1
 10
0.0
 20
0.0
 30
0.0
  0
VERTEX
  5
DE
330
DD
100
AcDbEntity
  8
Exterieur
370
     0
100
AcDbVertex
100
AcDb2dVertex
 10
287.7583123909917
 20
-104.2032296925857
 30
0.0
  0
VERTEX
  5
DF
330
DD
100
AcDbEntity
  8
Exterieur
370
     0
100
AcDbVertex
100
AcDb2dVertex
 10
302.6842053291912
 20
-78.34272155908533
 30
0.0
  0
SEQEND
  5
E0
330
DD
100
AcDbEntity
  8
Exterieur
370
     0
  0
ENDBLK
  5
DC
330
D9
100
AcDbEntity
  8
0
100
AcDbBlockEnd
  0
BLOCK
  5
E3
330
E1
100
AcDbEntity
  8
0
100
AcDbBlockBegin
  2
block 26
 70
     0
 10
0.0
 20
0.0
 30
0.0
  3
block 26
  1

  0
POLYLINE
  5
E5
330
E1
100
AcDbEntity
  8
Exterieur
370
     0
100
AcDb2dPolyline
 66
     1
 10
0.0
 20
0.0
 30
0.0
  0
VERTEX
  5
E6
330
E5
100
AcDbEntity
  8
Exterieur
370
     0
100
AcDbVertex
100
AcDb2dVertex
 10
302.6842053291912
 20
-78.34272155908533
 30
0.0
  0
VERTEX
  5
E7
330
E5
100
AcDbEntity
  8
Exterieur
370
     0
100
AcDbVertex
100
AcDb2dVertex
 10
302.6842053291912
 20
-73.3402341563855
 30
0.0
  0
SEQEND
  5
E8
330
E5
100
AcDbEntity
  8
Exterieur
370
     0
  0
ENDBLK
  5
E4
330
E1
100
AcDbEntity
  8
0
100
AcDbBlockEnd
  0
BLOCK
  5
EB
330
E9
100
AcDbEntity
  8
0
100
AcDbBlockBegin
  2
block 27
 70
     0
 10
0.0
 20
0.0
 30
0.0
  3
block 27
  1

  0
POLYLINE
  5
ED
330
E9
100
AcDbEntity
  8
Exterieur
370
     0
100
AcDb2dPolyline
 66
     1
 10
0.0
 20
0.0
 30
0.0
  0
VERTEX
  5
EE
330
ED
100
AcDbEntity
  8
Exterieur
370
     0
100
AcDbVertex
100
AcDb2dVertex
 10
302.6842053291912
 20
-73.3402341563855
 30
0.0
  0
VERTEX
  5
EF
330
ED
100
AcDbEntity
  8
Exterieur
370
     0
100
AcDbVertex
100
AcDb2dVertex
 10
305.5714877836915
 20
-73.3402341563855
 30
0.0
  0
SEQEND
  5
F0
330
ED
100
AcDbEntity
  8
Exterieur
370
     0
  0
ENDBLK
  5
EC
330
E9
100
AcDbEntity
  8
0
100
AcDbBlockEnd
  0
BLOCK
  5
F3
330
F1
100
AcDbEntity
  8
0
100
AcDbBlockBegin
  2
block 28
 70
     0
 10
0.0
 20
0.0
 30
0.0
  3
block 28
  1

  0
POLYLINE
  5
F5
330
F1
100
AcDbEntity
  8
Exterieur
370
     0
100
AcDb2dPolyline
 66
     1
 10
0.0
 20
0.0
 30
0.0
  0
VERTEX
  5
F6
330
F5
100
AcDbEntity
  8
Exterieur
370
     0
100
AcDbVertex
100
AcDb2dVertex
 10
305.5714877836915
 20
-73.3402341563855
 30
0.0
  0
VERTEX
  5
F7
330
F5
100
AcDbEntity
  8
Exterieur
370
     0
100
AcDbVertex
100
AcDb2dVertex
 10
310.1356825806911
 20
-65.43233898658508
 30
0.0
  0
SEQEND
  5
F8
330
F5
100
AcDbEntity
  8
Exterieur
370
     0
  0
ENDBLK
  5
F4
330
F1
100
AcDbEntity
  8
0
100
AcDbBlockEnd
  0
BLOCK
  5
FB
330
F9
100
AcDbEntity
  8
0
100
AcDbBlockBegin
  2
block 29
 70
     0
 10
0.0
 20
0.0
 30
0.0
  3
block 29
  1

  0
SPLINE
  5
FD
330
F9
100
AcDbEntity
  8
Exterieur
370
     0
100
AcDbSpline
210
0.0
220
0.0
230
1.0
 70
     8
 71
     3
 72
     8
 73
     4
 74
     0
 42
0.0000000001
 43
0.0000000001
 12
1.0
 22
0.0
 32
0.0
 13
1.0
 23
0.0
 33
0.0
 40
0.0
 40
0.0
 40
0.0
 40
0.0
 40
1.0
 40
1.0
 40
1.0
 40
1.0
 10
310.1356825807174
 20
-65.43233898666817
 30
0.0
 10
311.3996579030378
 20
-63.2423833010328
 30
0.0
 10
311.7870983565758
 20
-60.65490571955681
 30
0.0
 10
311.220011097544
 20
-58.19077269532197
 30
0.0
  0
ENDBLK
  5
FC
330
F9
100
AcDbEntity
  8
0
100
AcDbBlockEnd
  0
BLOCK
  5
100
330
FE
100
AcDbEntity
  8
0
100
AcDbBlockBegin
  2
block 30
 70
     0
 10
0.0
 20
0.0
 30
0.0
  3
block 30
  1

  0
SPLINE
  5
102
330
FE
100
AcDbEntity
  8
Exterieur
370
     0
100
AcDbSpline
210
0.0
220
0.0
230
1.0
 70
     8
 71
     3
 72
     8
 73
     4
 74
     0
 42
0.0000000001
 43
0.0000000001
 12
1.0
 22
0.0
 32
0.0
 13
1.0
 23
0.0
 33
0.0
 40
0.0
 40
0.0
 40
0.0
 40
0.0
 40
1.0
 40
1.0
 40
1.0
 40
1.0
 10
311.2200110974971
 20
-58.19077269525876
 30
0.0
 10
309.9749517658145
 20
-52.78068497512049
 30
0.0
 10
306.5372345914305
 20
-48.13150059291593
 30
0.0
 10
301.7294891134012
 20
-45.35574748835449
 30
0.0
  0
ENDBLK
  5
101
330
FE
100
AcDbEntity
  8
0
100
AcDbBlockEnd
  0
BLOCK
  5
105
330
103
100
AcDbEntity
  8
0
100
AcDbBlockBegin
  2
block 31
 70
     0
 10
0.0
 20
0.0
 30
0.0
  3
block 31
  1

  0
POLYLINE
  5
107
330
103
100
AcDbEntity
  8
Exterieur
370
     0
100
AcDb2dPolyline
 66
     1
 10
0.0
 20
0.0
 30
0.0
  0
VERTEX
  5
108
330
107
100
AcDbEntity
  8
Exterieur
370
     0
100
AcDbVertex
100
AcDb2dVertex
 10
301.7294891133916
 20
-45.35574748838561
 30
0.0
  0
VERTEX
  5
109
330
107
100
AcDbEntity
  8
Exterieur
370
     0
100
AcDbVertex
100
AcDb2dVertex
 10
267.1698885461915
 20
-25.40275309528541
 30
0.0
  0
SEQEND
  5
10A
330
107
100
AcDbEntity
  8
Exterieur
370
     0
  0
ENDBLK
  5
106
330
103
100
AcDbEntity
  8
0
100
AcDbBlockEnd
  0
BLOCK
  5
10D
330
10B
100
AcDbEntity
  8
0
100
AcDbBlockBegin
  2
block 32
 70
     0
 10
0.0
 20
0.0
 30
0.0
  3
block 32
  1

  0
POLYLINE
  5
10F
330
10B
100
AcDbEntity
  8
Exterieur
370
     0
100
AcDb2dPolyline
 66
     1
 10
0.0
 20
0.0
 30
0.0
  0
VERTEX
  5
110
330
10F
100
AcDbEntity
  8
Exterieur
370
     0
100
AcDbVertex
100
AcDb2dVertex
 10
247.0599266483915
 20
-36.14267554888539
 30
0.0
  0
VERTEX
  5
6C9
330
10F
100
AcDbEntity
  8
0
100
AcDbVertex
100
AcDb2dVertex
 10
247.0599266483915
 20
-36.14267554888539
 30
0.0
  0
SEQEND
  5
111
330
10F
100
AcDbEntity
  8
Exterieur
370
     0
  0
ENDBLK
  5
10E
330
10B
100
AcDbEntity
  8
0
100
AcDbBlockEnd
  0
BLOCK
  5
114
330
112
100
AcDbEntity
  8
0
100
AcDbBlockBegin
  2
block 33
 70
     0
 10
0.0
 20
0.0
 30
0.0
  3
block 33
  1

  0
POLYLINE
  5
116
330
112
100
AcDbEntity
  8
Exterieur
370
     0
100
AcDb2dPolyline
 66
     1
 10
0.0
 20
0.0
 30
0.0
  0
VERTEX
  5
117
330
116
100
AcDbEntity
  8
Exterieur
370
     0
100
AcDbVertex
100
AcDb2dVertex
 10
247.0599266483915
 20
-36.14267554888539
 30
0.0
  0
VERTEX
  5
6CA
330
116
100
AcDbEntity
  8
0
100
AcDbVertex
100
AcDb2dVertex
 10
247.0599266483915
 20
-36.14267554888539
 30
0.0
  0
SEQEND
  5
118
330
116
100
AcDbEntity
  8
Exterieur
370
     0
  0
ENDBLK
  5
115
330
112
100
AcDbEntity
  8
0
100
AcDbBlockEnd
  0
BLOCK
  5
11B
330
119
100
AcDbEntity
  8
0
100
AcDbBlockBegin
  2
block 34
 70
     0
 10
0.0
 20
0.0
 30
0.0
  3
block 34
  1

  0
POLYLINE
  5
11D
330
119
100
AcDbEntity
  8
Exterieur
370
     0
100
AcDb2dPolyline
 66
     1
 10
0.0
 20
0.0
 30
0.0
  0
VERTEX
  5
11E
330
11D
100
AcDbEntity
  8
Exterieur
370
     0
100
AcDbVertex
100
AcDb2dVertex
 10
298.1554254716917
 20
-231.0427675691852
 30
0.0
  0
VERTEX
  5
6CB
330
11D
100
AcDbEntity
  8
0
100
AcDbVertex
100
AcDb2dVertex
 10
298.1554254716917
 20
-231.0427675691852
 30
0.0
  0
SEQEND
  5
11F
330
11D
100
AcDbEntity
  8
Exterieur
370
     0
  0
ENDBLK
  5
11C
330
119
100
AcDbEntity
  8
0
100
AcDbBlockEnd
  0
BLOCK
  5
122
330
120
100
AcDbEntity
  8
0
100
AcDbBlockBegin
  2
block 35
 70
     0
 10
0.0
 20
0.0
 30
0.0
  3
block 35
  1

  0
POLYLINE
  5
124
330
120
100
AcDbEntity
  8
Exterieur
370
     0
100
AcDb2dPolyline
 66
     1
 10
0.0
 20
0.0
 30
0.0
  0
VERTEX
  5
125
330
124
100
AcDbEntity
  8
Exterieur
370
     0
100
AcDbVertex
100
AcDb2dVertex
 10
289.4855524906911
 20
-206.0261070707857
 30
0.0
  0
VERTEX
  5
6CC
330
124
100
AcDbEntity
  8
0
100
AcDbVertex
100
AcDb2dVertex
 10
289.4855524906911
 20
-206.0261070707857
 30
0.0
  0
SEQEND
  5
126
330
124
100
AcDbEntity
  8
Exterieur
370
     0
  0
ENDBLK
  5
123
330
120
100
AcDbEntity
  8
0
100
AcDbBlockEnd
  0
BLOCK
  5
129
330
127
100
AcDbEntity
  8
0
100
AcDbBlockBegin
  2
block 36
 70
     0
 10
0.0
 20
0.0
 30
0.0
  3
block 36
  1

  0
POLYLINE
  5
12B
330
127
100
AcDbEntity
  8
Exterieur
370
     0
100
AcDb2dPolyline
 66
     1
 10
0.0
 20
0.0
 30
0.0
  0
VERTEX
  5
12C
330
12B
100
AcDbEntity
  8
Exterieur
370
     0
100
AcDbVertex
100
AcDb2dVertex
 10
289.4855524906911
 20
-206.0261070707857
 30
0.0
  0
VERTEX
  5
6CD
330
12B
100
AcDbEntity
  8
0
100
AcDbVertex
100
AcDb2dVertex
 10
289.4855524906911
 20
-206.0261070707857
 30
0.0
  0
SEQEND
  5
12D
330
12B
100
AcDbEntity
  8
Exterieur
370
     0
  0
POLYLINE
  5
12E
330
127
100
AcDbEntity
  8
Exterieur
370
     0
100
AcDb2dPolyline
 66
     1
 10
0.0
 20
0.0
 30
0.0
  0
VERTEX
  5
12F
330
12E
100
AcDbEntity
  8
Exterieur
370
     0
100
AcDbVertex
100
AcDb2dVertex
 10
302.4855524906916
 20
-228.5427675691855
 30
0.0
  0
VERTEX
  5
6CE
330
12E
100
AcDbEntity
  8
0
100
AcDbVertex
100
AcDb2dVertex
 10
302.4855524906916
 20
-228.5427675691855
 30
0.0
  0
SEQEND
  5
130
330
12E
100
AcDbEntity
  8
Exterieur
370
     0
  0
ENDBLK
  5
12A
330
127
100
AcDbEntity
  8
0
100
AcDbBlockEnd
  0
BLOCK
  5
133
330
131
100
AcDbEntity
  8
0
100
AcDbBlockBegin
  2
block 37
 70
     0
 10
0.0
 20
0.0
 30
0.0
  3
block 37
  1

  0
POLYLINE
  5
135
330
131
100
AcDbEntity
  8
Exterieur
370
     0
100
AcDb2dPolyline
 66
     1
 10
0.0
 20
0.0
 30
0.0
  0
VERTEX
  5
136
330
135
100
AcDbEntity
  8
Exterieur
370
     0
100
AcDbVertex
100
AcDb2dVertex
 10
302.4855524906916
 20
-228.5427675691855
 30
0.0
  0
VERTEX
  5
6CF
330
135
100
AcDbEntity
  8
0
100
AcDbVertex
100
AcDb2dVertex
 10
302.4855524906916
 20
-228.5427675691855
 30
0.0
  0
SEQEND
  5
137
330
135
100
AcDbEntity
  8
Exterieur
370
     0
  0
POLYLINE
  5
138
330
131
100
AcDbEntity
  8
Exterieur
370
     0
100
AcDb2dPolyline
 66
     1
 10
0.0
 20
0.0
 30
0.0
  0
VERTEX
  5
139
330
138
100
AcDbEntity
  8
Exterieur
370
     0
100
AcDbVertex
100
AcDb2dVertex
 10
298.1554254716917
 20
-231.0427675691852
 30
0.0
  0
VERTEX
  5
6D0
330
138
100
AcDbEntity
  8
0
100
AcDbVertex
100
AcDb2dVertex
 10
298.1554254716917
 20
-231.0427675691852
 30
0.0
  0
SEQEND
  5
13A
330
138
100
AcDbEntity
  8
Exterieur
370
     0
  0
ENDBLK
  5
134
330
131
100
AcDbEntity
  8
0
100
AcDbBlockEnd
  0
BLOCK
  5
13D
330
13B
100
AcDbEntity
  8
0
100
AcDbBlockBegin
  2
block 38
 70
     0
 10
0.0
 20
0.0
 30
0.0
  3
block 38
  1

  0
INSERT
  5
140
330
13B
100
AcDbEntity
  8
Exterieur
100
AcDbBlockReference
  2
block 39
 10
0.0
 20
0.0
 30
0.0
  0
INSERT
  5
148
330
13B
100
AcDbEntity
  8
Exterieur
100
AcDbBlockReference
  2
block 40
 10
0.0
 20
0.0
 30
0.0
  0
INSERT
  5
14D
330
13B
100
AcDbEntity
  8
Exterieur
100
AcDbBlockReference
  2
block 41
 10
0.0
 20
0.0
 30
0.0
  0
INSERT
  5
155
330
13B
100
AcDbEntity
  8
Exterieur
100
AcDbBlockReference
  2
block 42
 10
0.0
 20
0.0
 30
0.0
  0
INSERT
  5
15A
330
13B
100
AcDbEntity
  8
Exterieur
100
AcDbBlockReference
  2
block 43
 10
0.0
 20
0.0
 30
0.0
  0
INSERT
  5
162
330
13B
100
AcDbEntity
  8
Exterieur
100
AcDbBlockReference
  2
block 44
 10
0.0
 20
0.0
 30
0.0
  0
INSERT
  5
16A
330
13B
100
AcDbEntity
  8
Exterieur
100
AcDbBlockReference
  2
block 45
 10
0.0
 20
0.0
 30
0.0
  0
INSERT
  5
172
330
13B
100
AcDbEntity
  8
Exterieur
100
AcDbBlockReference
  2
block 46
 10
0.0
 20
0.0
 30
0.0
  0
INSERT
  5
177
330
13B
100
AcDbEntity
  8
Exterieur
100
AcDbBlockReference
  2
block 47
 10
0.0
 20
0.0
 30
0.0
  0
INSERT
  5
17F
330
13B
100
AcDbEntity
  8
Exterieur
100
AcDbBlockReference
  2
block 48
 10
0.0
 20
0.0
 30
0.0
  0
INSERT
  5
184
330
13B
100
AcDbEntity
  8
Exterieur
100
AcDbBlockReference
  2
block 49
 10
0.0
 20
0.0
 30
0.0
  0
INSERT
  5
18C
330
13B
100
AcDbEntity
  8
Exterieur
100
AcDbBlockReference
  2
block 50
 10
0.0
 20
0.0
 30
0.0
  0
INSERT
  5
191
330
13B
100
AcDbEntity
  8
Exterieur
100
AcDbBlockReference
  2
block 51
 10
0.0
 20
0.0
 30
0.0
  0
INSERT
  5
199
330
13B
100
AcDbEntity
  8
Exterieur
100
AcDbBlockReference
  2
block 52
 10
0.0
 20
0.0
 30
0.0
  0
INSERT
  5
19E
330
13B
100
AcDbEntity
  8
Exterieur
100
AcDbBlockReference
  2
block 53
 10
0.0
 20
0.0
 30
0.0
  0
INSERT
  5
1A6
330
13B
100
AcDbEntity
  8
Exterieur
100
AcDbBlockReference
  2
block 54
 10
0.0
 20
0.0
 30
0.0
  0
ENDBLK
  5
13E
330
13B
100
AcDbEntity
  8
0
100
AcDbBlockEnd
  0
BLOCK
  5
141
330
13F
100
AcDbEntity
  8
0
100
AcDbBlockBegin
  2
block 39
 70
     0
 10
0.0
 20
0.0
 30
0.0
  3
block 39
  1

  0
POLYLINE
  5
143
330
13F
100
AcDbEntity
  8
Exterieur
370
     0
100
AcDb2dPolyline
 66
     1
 10
0.0
 20
0.0
 30
0.0
  0
VERTEX
  5
144
330
143
100
AcDbEntity
  8
Exterieur
370
     0
100
AcDbVertex
100
AcDb2dVertex
 10
303.4407689534647
 20
-125.327648095879
 30
0.0
  0
VERTEX
  5
145
330
143
100
AcDbEntity
  8
Exterieur
370
     0
100
AcDbVertex
100
AcDb2dVertex
 10
303.7576269071647
 20
-130.3482204462795
 30
0.0
  0
SEQEND
  5
146
330
143
100
AcDbEntity
  8
Exterieur
370
     0
  0
ENDBLK
  5
142
330
13F
100
AcDbEntity
  8
0
100
AcDbBlockEnd
  0
BLOCK
  5
149
330
147
100
AcDbEntity
  8
0
100
AcDbBlockBegin
  2
block 40
 70
     0
 10
0.0
 20
0.0
 30
0.0
  3
block 40
  1

  0
SPLINE
  5
14B
330
147
100
AcDbEntity
  8
Exterieur
370
     0
100
AcDbSpline
210
0.0
220
0.0
230
1.0
 70
     8
 71
     3
 72
     8
 73
     4
 74
     0
 42
0.0000000001
 43
0.0000000001
 12
1.0
 22
0.0
 32
0.0
 13
1.0
 23
0.0
 33
0.0
 40
0.0
 40
0.0
 40
0.0
 40
0.0
 40
1.0
 40
1.0
 40
1.0
 40
1.0
 10
303.7576269071474
 20
-130.3482204463142
 30
0.0
 10
303.7742499612739
 20
-130.6116105394873
 30
0.0
 10
303.9927199651756
 20
-130.8167271453791
 30
0.0
 10
304.2566340934649
 20
-130.8167271453791
 30
0.0
  0
ENDBLK
  5
14A
330
147
100
AcDbEntity
  8
0
100
AcDbBlockEnd
  0
BLOCK
  5
14E
330
14C
100
AcDbEntity
  8
0
100
AcDbBlockBegin
  2
block 41
 70
     0
 10
0.0
 20
0.0
 30
0.0
  3
block 41
  1

  0
POLYLINE
  5
150
330
14C
100
AcDbEntity
  8
Exterieur
370
     0
100
AcDb2dPolyline
 66
     1
 10
0.0
 20
0.0
 30
0.0
  0
VERTEX
  5
151
330
150
100
AcDbEntity
  8
Exterieur
370
     0
100
AcDbVertex
100
AcDb2dVertex
 10
304.2566340934649
 20
-130.8167271453791
 30
0.0
  0
VERTEX
  5
152
330
150
100
AcDbEntity
  8
Exterieur
370
     0
100
AcDbVertex
100
AcDb2dVertex
 10
318.0590777266645
 20
-130.8167271453791
 30
0.0
  0
SEQEND
  5
153
330
150
100
AcDbEntity
  8
Exterieur
370
     0
  0
ENDBLK
  5
14F
330
14C
100
AcDbEntity
  8
0
100
AcDbBlockEnd
  0
BLOCK
  5
156
330
154
100
AcDbEntity
  8
0
100
AcDbBlockBegin
  2
block 42
 70
     0
 10
0.0
 20
0.0
 30
0.0
  3
block 42
  1

  0
SPLINE
  5
158
330
154
100
AcDbEntity
  8
Exterieur
370
     0
100
AcDbSpline
210
0.0
220
0.0
230
1.0
 70
     8
 71
     3
 72
     8
 73
     4
 74
     0
 42
0.0000000001
 43
0.0000000001
 12
1.0
 22
0.0
 32
0.0
 13
1.0
 23
0.0
 33
0.0
 40
0.0
 40
0.0
 40
0.0
 40
0.0
 40
1.0
 40
1.0
 40
1.0
 40
1.0
 10
318.0590777266645
 20
-130.8167271453791
 30
0.0
 10
318.3204488816272
 20
-130.8167271453791
 30
0.0
 10
318.5377187944313
 20
-130.6154203138547
 30
0.0
 10
318.5576254409003
 20
-130.3548083301076
 30
0.0
  0
ENDBLK
  5
157
330
154
100
AcDbEntity
  8
0
100
AcDbBlockEnd
  0
BLOCK
  5
15B
330
159
100
AcDbEntity
  8
0
100
AcDbBlockBegin
  2
block 43
 70
     0
 10
0.0
 20
0.0
 30
0.0
  3
block 43
  1

  0
POLYLINE
  5
15D
330
159
100
AcDbEntity
  8
Exterieur
370
     0
100
AcDb2dPolyline
 66
     1
 10
0.0
 20
0.0
 30
0.0
  0
VERTEX
  5
15E
330
15D
100
AcDbEntity
  8
Exterieur
370
     0
100
AcDbVertex
100
AcDb2dVertex
 10
318.557625440865
 20
-130.354808330079
 30
0.0
  0
VERTEX
  5
15F
330
15D
100
AcDbEntity
  8
Exterieur
370
     0
100
AcDbVertex
100
AcDb2dVertex
 10
318.940764899365
 20
-125.3388587844791
 30
0.0
  0
SEQEND
  5
160
330
15D
100
AcDbEntity
  8
Exterieur
370
     0
  0
ENDBLK
  5
15C
330
159
100
AcDbEntity
  8
0
100
AcDbBlockEnd
  0
BLOCK
  5
163
330
161
100
AcDbEntity
  8
0
100
AcDbBlockBegin
  2
block 44
 70
     0
 10
0.0
 20
0.0
 30
0.0
  3
block 44
  1

  0
POLYLINE
  5
165
330
161
100
AcDbEntity
  8
Exterieur
370
     0
100
AcDb2dPolyline
 66
     1
 10
0.0
 20
0.0
 30
0.0
  0
VERTEX
  5
166
330
165
100
AcDbEntity
  8
Exterieur
370
     0
100
AcDbVertex
100
AcDb2dVertex
 10
318.940764899365
 20
-125.3388587844791
 30
0.0
  0
VERTEX
  5
167
330
165
100
AcDbEntity
  8
Exterieur
370
     0
100
AcDbVertex
100
AcDb2dVertex
 10
328.824069324665
 20
-125.3388587844791
 30
0.0
  0
SEQEND
  5
168
330
165
100
AcDbEntity
  8
Exterieur
370
     0
  0
ENDBLK
  5
164
330
161
100
AcDbEntity
  8
0
100
AcDbBlockEnd
  0
BLOCK
  5
16B
330
169
100
AcDbEntity
  8
0
100
AcDbBlockBegin
  2
block 45
 70
     0
 10
0.0
 20
0.0
 30
0.0
  3
block 45
  1

  0
POLYLINE
  5
16D
330
169
100
AcDbEntity
  8
Exterieur
370
     0
100
AcDb2dPolyline
 66
     1
 10
0.0
 20
0.0
 30
0.0
  0
VERTEX
  5
16E
330
16D
100
AcDbEntity
  8
Exterieur
370
     0
100
AcDbVertex
100
AcDb2dVertex
 10
328.824069324665
 20
-125.3388587844791
 30
0.0
  0
VERTEX
  5
16F
330
16D
100
AcDbEntity
  8
Exterieur
370
     0
100
AcDbVertex
100
AcDb2dVertex
 10
331.101212830065
 20
-117.3496338513795
 30
0.0
  0
SEQEND
  5
170
330
16D
100
AcDbEntity
  8
Exterieur
370
     0
  0
ENDBLK
  5
16C
330
169
100
AcDbEntity
  8
0
100
AcDbBlockEnd
  0
BLOCK
  5
173
330
171
100
AcDbEntity
  8
0
100
AcDbBlockBegin
  2
block 46
 70
     0
 10
0.0
 20
0.0
 30
0.0
  3
block 46
  1

  0
SPLINE
  5
175
330
171
100
AcDbEntity
  8
Exterieur
370
     0
100
AcDbSpline
210
0.0
220
0.0
230
1.0
 70
     8
 71
     3
 72
     8
 73
     4
 74
     0
 42
0.0000000001
 43
0.0000000001
 12
1.0
 22
0.0
 32
0.0
 13
1.0
 23
0.0
 33
0.0
 40
0.0
 40
0.0
 40
0.0
 40
0.0
 40
1.0
 40
1.0
 40
1.0
 40
1.0
 10
331.1012128300516
 20
-117.3496338514228
 30
0.0
 10
331.4456009536559
 20
-116.14136824271
 30
0.0
 10
331.0006055250748
 20
-114.8464901228031
 30
0.0
 10
329.9862281983536
 20
-114.1051753449166
 30
0.0
  0
ENDBLK
  5
174
330
171
100
AcDbEntity
  8
0
100
AcDbBlockEnd
  0
BLOCK
  5
178
330
176
100
AcDbEntity
  8
0
100
AcDbBlockBegin
  2
block 47
 70
     0
 10
0.0
 20
0.0
 30
0.0
  3
block 47
  1

  0
POLYLINE
  5
17A
330
176
100
AcDbEntity
  8
Exterieur
370
     0
100
AcDb2dPolyline
 66
     1
 10
0.0
 20
0.0
 30
0.0
  0
VERTEX
  5
17B
330
17A
100
AcDbEntity
  8
Exterieur
370
     0
100
AcDbVertex
100
AcDb2dVertex
 10
329.9862281983645
 20
-114.1051753448794
 30
0.0
  0
VERTEX
  5
17C
330
17A
100
AcDbEntity
  8
Exterieur
370
     0
100
AcDbVertex
100
AcDb2dVertex
 10
319.4903360402647
 20
-106.4346963633794
 30
0.0
  0
SEQEND
  5
17D
330
17A
100
AcDbEntity
  8
Exterieur
370
     0
  0
ENDBLK
  5
179
330
176
100
AcDbEntity
  8
0
100
AcDbBlockEnd
  0
BLOCK
  5
180
330
17E
100
AcDbEntity
  8
0
100
AcDbBlockBegin
  2
block 48
 70
     0
 10
0.0
 20
0.0
 30
0.0
  3
block 48
  1

  0
SPLINE
  5
182
330
17E
100
AcDbEntity
  8
Exterieur
370
     0
100
AcDbSpline
210
0.0
220
0.0
230
1.0
 70
     8
 71
     3
 72
     8
 73
     4
 74
     0
 42
0.0000000001
 43
0.0000000001
 12
1.0
 22
0.0
 32
0.0
 13
1.0
 23
0.0
 33
0.0
 40
0.0
 40
0.0
 40
0.0
 40
0.0
 40
1.0
 40
1.0
 40
1.0
 40
1.0
 10
319.4903360402538
 20
-106.4346963634166
 30
0.0
 10
318.9765266684803
 20
-106.0592005096756
 30
0.0
 10
318.3566194145046
 20
-105.8568253229792
 30
0.0
 10
317.7202255060645
 20
-105.8568253229792
 30
0.0
  0
ENDBLK
  5
181
330
17E
100
AcDbEntity
  8
0
100
AcDbBlockEnd
  0
BLOCK
  5
185
330
183
100
AcDbEntity
  8
0
100
AcDbBlockBegin
  2
block 49
 70
     0
 10
0.0
 20
0.0
 30
0.0
  3
block 49
  1

  0
POLYLINE
  5
187
330
183
100
AcDbEntity
  8
Exterieur
370
     0
100
AcDb2dPolyline
 66
     1
 10
0.0
 20
0.0
 30
0.0
  0
VERTEX
  5
188
330
187
100
AcDbEntity
  8
Exterieur
370
     0
100
AcDbVertex
100
AcDb2dVertex
 10
317.7202255060645
 20
-105.8568253229792
 30
0.0
  0
VERTEX
  5
189
330
187
100
AcDbEntity
  8
Exterieur
370
     0
100
AcDbVertex
100
AcDb2dVertex
 10
304.5458575288647
 20
-105.8568253229792
 30
0.0
  0
SEQEND
  5
18A
330
187
100
AcDbEntity
  8
Exterieur
370
     0
  0
ENDBLK
  5
186
330
183
100
AcDbEntity
  8
0
100
AcDbBlockEnd
  0
BLOCK
  5
18D
330
18B
100
AcDbEntity
  8
0
100
AcDbBlockBegin
  2
block 50
 70
     0
 10
0.0
 20
0.0
 30
0.0
  3
block 50
  1

  0
SPLINE
  5
18F
330
18B
100
AcDbEntity
  8
Exterieur
370
     0
100
AcDbSpline
210
0.0
220
0.0
230
1.0
 70
     8
 71
     3
 72
     8
 73
     4
 74
     0
 42
0.0000000001
 43
0.0000000001
 12
1.0
 22
0.0
 32
0.0
 13
1.0
 23
0.0
 33
0.0
 40
0.0
 40
0.0
 40
0.0
 40
0.0
 40
1.0
 40
1.0
 40
1.0
 40
1.0
 10
304.5458575288647
 20
-105.8568253229792
 30
0.0
 10
303.9113365931936
 20
-105.8568253229792
 30
0.0
 10
303.29315513681
 20
-106.0580124434276
 30
0.0
 10
302.780174852276
 20
-106.4314666514431
 30
0.0
  0
ENDBLK
  5
18E
330
18B
100
AcDbEntity
  8
0
100
AcDbBlockEnd
  0
BLOCK
  5
192
330
190
100
AcDbEntity
  8
0
100
AcDbBlockBegin
  2
block 51
 70
     0
 10
0.0
 20
0.0
 30
0.0
  3
block 51
  1

  0
POLYLINE
  5
194
330
190
100
AcDbEntity
  8
Exterieur
370
     0
100
AcDb2dPolyline
 66
     1
 10
0.0
 20
0.0
 30
0.0
  0
VERTEX
  5
195
330
194
100
AcDbEntity
  8
Exterieur
370
     0
100
AcDbVertex
100
AcDb2dVertex
 10
302.7801748522645
 20
-106.4314666514794
 30
0.0
  0
VERTEX
  5
196
330
194
100
AcDbEntity
  8
Exterieur
370
     0
100
AcDbVertex
100
AcDb2dVertex
 10
292.2702872755651
 20
-114.0827582499792
 30
0.0
  0
SEQEND
  5
197
330
194
100
AcDbEntity
  8
Exterieur
370
     0
  0
ENDBLK
  5
193
330
190
100
AcDbEntity
  8
0
100
AcDbBlockEnd
  0
BLOCK
  5
19A
330
198
100
AcDbEntity
  8
0
100
AcDbBlockBegin
  2
block 52
 70
     0
 10
0.0
 20
0.0
 30
0.0
  3
block 52
  1

  0
SPLINE
  5
19C
330
198
100
AcDbEntity
  8
Exterieur
370
     0
100
AcDbSpline
210
0.0
220
0.0
230
1.0
 70
     8
 71
     3
 72
     8
 73
     4
 74
     0
 42
0.0000000001
 43
0.0000000001
 12
1.0
 22
0.0
 32
0.0
 13
1.0
 23
0.0
 33
0.0
 40
0.0
 40
0.0
 40
0.0
 40
0.0
 40
1.0
 40
1.0
 40
1.0
 40
1.0
 10
292.2702872755766
 20
-114.0827582500431
 30
0.0
 10
291.2398734389313
 20
-114.8329086844648
 30
0.0
 10
290.7959334893535
 20
-116.1522488720609
 30
0.0
 10
291.1632601304682
 20
-117.3727198826709
 30
0.0
  0
ENDBLK
  5
19B
330
198
100
AcDbEntity
  8
0
100
AcDbBlockEnd
  0
BLOCK
  5
19F
330
19D
100
AcDbEntity
  8
0
100
AcDbBlockBegin
  2
block 53
 70
     0
 10
0.0
 20
0.0
 30
0.0
  3
block 53
  1

  0
POLYLINE
  5
1A1
330
19D
100
AcDbEntity
  8
Exterieur
370
     0
100
AcDb2dPolyline
 66
     1
 10
0.0
 20
0.0
 30
0.0
  0
VERTEX
  5
1A2
330
1A1
100
AcDbEntity
  8
Exterieur
370
     0
100
AcDbVertex
100
AcDb2dVertex
 10
291.1632601304651
 20
-117.3727198826792
 30
0.0
  0
VERTEX
  5
1A3
330
1A1
100
AcDbEntity
  8
Exterieur
370
     0
100
AcDbVertex
100
AcDb2dVertex
 10
293.5574645281646
 20
-125.327648095879
 30
0.0
  0
SEQEND
  5
1A4
330
1A1
100
AcDbEntity
  8
Exterieur
370
     0
  0
ENDBLK
  5
1A0
330
19D
100
AcDbEntity
  8
0
100
AcDbBlockEnd
  0
BLOCK
  5
1A7
330
1A5
100
AcDbEntity
  8
0
100
AcDbBlockBegin
  2
block 54
 70
     0
 10
0.0
 20
0.0
 30
0.0
  3
block 54
  1

  0
POLYLINE
  5
1A9
330
1A5
100
AcDbEntity
  8
Exterieur
370
     0
100
AcDb2dPolyline
 66
     1
 10
0.0
 20
0.0
 30
0.0
  0
VERTEX
  5
1AA
330
1A9
100
AcDbEntity
  8
Exterieur
370
     0
100
AcDbVertex
100
AcDb2dVertex
 10
293.5574645281646
 20
-125.327648095879
 30
0.0
  0
VERTEX
  5
1AB
330
1A9
100
AcDbEntity
  8
Exterieur
370
     0
100
AcDbVertex
100
AcDb2dVertex
 10
303.4407689534647
 20
-125.327648095879
 30
0.0
  0
SEQEND
  5
1AC
330
1A9
100
AcDbEntity
  8
Exterieur
370
     0
  0
ENDBLK
  5
1A8
330
1A5
100
AcDbEntity
  8
0
100
AcDbBlockEnd
  0
BLOCK
  5
1AF
330
1AD
100
AcDbEntity
  8
0
100
AcDbBlockBegin
  2
block 55
 70
     0
 10
0.0
 20
0.0
 30
0.0
  3
block 55
  1

  0
INSERT
  5
1B2
330
1AD
100
AcDbEntity
  8
Exterieur
100
AcDbBlockReference
  2
block 56
 10
0.0
 20
0.0
 30
0.0
  0
INSERT
  5
1BA
330
1AD
100
AcDbEntity
  8
Exterieur
100
AcDbBlockReference
  2
block 57
 10
0.0
 20
0.0
 30
0.0
  0
INSERT
  5
1BF
330
1AD
100
AcDbEntity
  8
Exterieur
100
AcDbBlockReference
  2
block 58
 10
0.0
 20
0.0
 30
0.0
  0
INSERT
  5
1C7
330
1AD
100
AcDbEntity
  8
Exterieur
100
AcDbBlockReference
  2
block 59
 10
0.0
 20
0.0
 30
0.0
  0
INSERT
  5
1CC
330
1AD
100
AcDbEntity
  8
Exterieur
100
AcDbBlockReference
  2
block 60
 10
0.0
 20
0.0
 30
0.0
  0
INSERT
  5
1D4
330
1AD
100
AcDbEntity
  8
Exterieur
100
AcDbBlockReference
  2
block 61
 10
0.0
 20
0.0
 30
0.0
  0
INSERT
  5
1DC
330
1AD
100
AcDbEntity
  8
Exterieur
100
AcDbBlockReference
  2
block 62
 10
0.0
 20
0.0
 30
0.0
  0
INSERT
  5
1E4
330
1AD
100
AcDbEntity
  8
Exterieur
100
AcDbBlockReference
  2
block 63
 10
0.0
 20
0.0
 30
0.0
  0
INSERT
  5
1E9
330
1AD
100
AcDbEntity
  8
Exterieur
100
AcDbBlockReference
  2
block 64
 10
0.0
 20
0.0
 30
0.0
  0
INSERT
  5
1F1
330
1AD
100
AcDbEntity
  8
Exterieur
100
AcDbBlockReference
  2
block 65
 10
0.0
 20
0.0
 30
0.0
  0
INSERT
  5
1F6
330
1AD
100
AcDbEntity
  8
Exterieur
100
AcDbBlockReference
  2
block 66
 10
0.0
 20
0.0
 30
0.0
  0
INSERT
  5
1FE
330
1AD
100
AcDbEntity
  8
Exterieur
100
AcDbBlockReference
  2
block 67
 10
0.0
 20
0.0
 30
0.0
  0
INSERT
  5
203
330
1AD
100
AcDbEntity
  8
Exterieur
100
AcDbBlockReference
  2
block 68
 10
0.0
 20
0.0
 30
0.0
  0
INSERT
  5
20B
330
1AD
100
AcDbEntity
  8
Exterieur
100
AcDbBlockReference
  2
block 69
 10
0.0
 20
0.0
 30
0.0
  0
INSERT
  5
210
330
1AD
100
AcDbEntity
  8
Exterieur
100
AcDbBlockReference
  2
block 70
 10
0.0
 20
0.0
 30
0.0
  0
INSERT
  5
218
330
1AD
100
AcDbEntity
  8
Exterieur
100
AcDbBlockReference
  2
block 71
 10
0.0
 20
0.0
 30
0.0
  0
ENDBLK
  5
1B0
330
1AD
100
AcDbEntity
  8
0
100
AcDbBlockEnd
  0
BLOCK
  5
1B3
330
1B1
100
AcDbEntity
  8
0
100
AcDbBlockBegin
  2
block 56
 70
     0
 10
0.0
 20
0.0
 30
0.0
  3
block 56
  1

  0
POLYLINE
  5
1B5
330
1B1
100
AcDbEntity
  8
Exterieur
370
     0
100
AcDb2dPolyline
 66
     1
 10
0.0
 20
0.0
 30
0.0
  0
VERTEX
  5
1B6
330
1B5
100
AcDbEntity
  8
Exterieur
370
     0
100
AcDbVertex
100
AcDb2dVertex
 10
303.4407689534647
 20
-153.3390466162335
 30
0.0
  0
VERTEX
  5
1B7
330
1B5
100
AcDbEntity
  8
Exterieur
370
     0
100
AcDbVertex
100
AcDb2dVertex
 10
303.7576269071647
 20
-158.359618966634
 30
0.0
  0
SEQEND
  5
1B8
330
1B5
100
AcDbEntity
  8
Exterieur
370
     0
  0
ENDBLK
  5
1B4
330
1B1
100
AcDbEntity
  8
0
100
AcDbBlockEnd
  0
BLOCK
  5
1BB
330
1B9
100
AcDbEntity
  8
0
100
AcDbBlockBegin
  2
block 57
 70
     0
 10
0.0
 20
0.0
 30
0.0
  3
block 57
  1

  0
SPLINE
  5
1BD
330
1B9
100
AcDbEntity
  8
Exterieur
370
     0
100
AcDbSpline
210
0.0
220
0.0
230
1.0
 70
     8
 71
     3
 72
     8
 73
     4
 74
     0
 42
0.0000000001
 43
0.0000000001
 12
1.0
 22
0.0
 32
0.0
 13
1.0
 23
0.0
 33
0.0
 40
0.0
 40
0.0
 40
0.0
 40
0.0
 40
1.0
 40
1.0
 40
1.0
 40
1.0
 10
303.7576269071474
 20
-158.3596189666686
 30
0.0
 10
303.7742499612739
 20
-158.6230090598418
 30
0.0
 10
303.9927199651756
 20
-158.8281256657336
 30
0.0
 10
304.2566340934649
 20
-158.8281256657336
 30
0.0
  0
ENDBLK
  5
1BC
330
1B9
100
AcDbEntity
  8
0
100
AcDbBlockEnd
  0
BLOCK
  5
1C0
330
1BE
100
AcDbEntity
  8
0
100
AcDbBlockBegin
  2
block 58
 70
     0
 10
0.0
 20
0.0
 30
0.0
  3
block 58
  1

  0
POLYLINE
  5
1C2
330
1BE
100
AcDbEntity
  8
Exterieur
370
     0
100
AcDb2dPolyline
 66
     1
 10
0.0
 20
0.0
 30
0.0
  0
VERTEX
  5
1C3
330
1C2
100
AcDbEntity
  8
Exterieur
370
     0
100
AcDbVertex
100
AcDb2dVertex
 10
304.2566340934649
 20
-158.8281256657336
 30
0.0
  0
VERTEX
  5
1C4
330
1C2
100
AcDbEntity
  8
Exterieur
370
     0
100
AcDbVertex
100
AcDb2dVertex
 10
318.0590777266645
 20
-158.8281256657336
 30
0.0
  0
SEQEND
  5
1C5
330
1C2
100
AcDbEntity
  8
Exterieur
370
     0
  0
ENDBLK
  5
1C1
330
1BE
100
AcDbEntity
  8
0
100
AcDbBlockEnd
  0
BLOCK
  5
1C8
330
1C6
100
AcDbEntity
  8
0
100
AcDbBlockBegin
  2
block 59
 70
     0
 10
0.0
 20
0.0
 30
0.0
  3
block 59
  1

  0
SPLINE
  5
1CA
330
1C6
100
AcDbEntity
  8
Exterieur
370
     0
100
AcDbSpline
210
0.0
220
0.0
230
1.0
 70
     8
 71
     3
 72
     8
 73
     4
 74
     0
 42
0.0000000001
 43
0.0000000001
 12
1.0
 22
0.0
 32
0.0
 13
1.0
 23
0.0
 33
0.0
 40
0.0
 40
0.0
 40
0.0
 40
0.0
 40
1.0
 40
1.0
 40
1.0
 40
1.0
 10
318.0590777266645
 20
-158.8281256657336
 30
0.0
 10
318.3204488816272
 20
-158.8281256657336
 30
0.0
 10
318.5377187944313
 20
-158.6268188342092
 30
0.0
 10
318.5576254409003
 20
-158.3662068504617
 30
0.0
  0
ENDBLK
  5
1C9
330
1C6
100
AcDbEntity
  8
0
100
AcDbBlockEnd
  0
BLOCK
  5
1CD
330
1CB
100
AcDbEntity
  8
0
100
AcDbBlockBegin
  2
block 60
 70
     0
 10
0.0
 20
0.0
 30
0.0
  3
block 60
  1

  0
POLYLINE
  5
1CF
330
1CB
100
AcDbEntity
  8
Exterieur
370
     0
100
AcDb2dPolyline
 66
     1
 10
0.0
 20
0.0
 30
0.0
  0
VERTEX
  5
1D0
330
1CF
100
AcDbEntity
  8
Exterieur
370
     0
100
AcDbVertex
100
AcDb2dVertex
 10
318.557625440865
 20
-158.3662068504335
 30
0.0
  0
VERTEX
  5
1D1
330
1CF
100
AcDbEntity
  8
Exterieur
370
     0
100
AcDbVertex
100
AcDb2dVertex
 10
318.940764899365
 20
-153.3502573048335
 30
0.0
  0
SEQEND
  5
1D2
330
1CF
100
AcDbEntity
  8
Exterieur
370
     0
  0
ENDBLK
  5
1CE
330
1CB
100
AcDbEntity
  8
0
100
AcDbBlockEnd
  0
BLOCK
  5
1D5
330
1D3
100
AcDbEntity
  8
0
100
AcDbBlockBegin
  2
block 61
 70
     0
 10
0.0
 20
0.0
 30
0.0
  3
block 61
  1

  0
POLYLINE
  5
1D7
330
1D3
100
AcDbEntity
  8
Exterieur
370
     0
100
AcDb2dPolyline
 66
     1
 10
0.0
 20
0.0
 30
0.0
  0
VERTEX
  5
1D8
330
1D7
100
AcDbEntity
  8
Exterieur
370
     0
100
AcDbVertex
100
AcDb2dVertex
 10
318.940764899365
 20
-153.3502573048335
 30
0.0
  0
VERTEX
  5
1D9
330
1D7
100
AcDbEntity
  8
Exterieur
370
     0
100
AcDbVertex
100
AcDb2dVertex
 10
328.824069324665
 20
-153.3502573048335
 30
0.0
  0
SEQEND
  5
1DA
330
1D7
100
AcDbEntity
  8
Exterieur
370
     0
  0
ENDBLK
  5
1D6
330
1D3
100
AcDbEntity
  8
0
100
AcDbBlockEnd
  0
BLOCK
  5
1DD
330
1DB
100
AcDbEntity
  8
0
100
AcDbBlockBegin
  2
block 62
 70
     0
 10
0.0
 20
0.0
 30
0.0
  3
block 62
  1

  0
POLYLINE
  5
1DF
330
1DB
100
AcDbEntity
  8
Exterieur
370
     0
100
AcDb2dPolyline
 66
     1
 10
0.0
 20
0.0
 30
0.0
  0
VERTEX
  5
1E0
330
1DF
100
AcDbEntity
  8
Exterieur
370
     0
100
AcDbVertex
100
AcDb2dVertex
 10
328.824069324665
 20
-153.3502573048335
 30
0.0
  0
VERTEX
  5
1E1
330
1DF
100
AcDbEntity
  8
Exterieur
370
     0
100
AcDbVertex
100
AcDb2dVertex
 10
331.101212830065
 20
-145.361032371734
 30
0.0
  0
SEQEND
  5
1E2
330
1DF
100
AcDbEntity
  8
Exterieur
370
     0
  0
ENDBLK
  5
1DE
330
1DB
100
AcDbEntity
  8
0
100
AcDbBlockEnd
  0
BLOCK
  5
1E5
330
1E3
100
AcDbEntity
  8
0
100
AcDbBlockBegin
  2
block 63
 70
     0
 10
0.0
 20
0.0
 30
0.0
  3
block 63
  1

  0
SPLINE
  5
1E7
330
1E3
100
AcDbEntity
  8
Exterieur
370
     0
100
AcDbSpline
210
0.0
220
0.0
230
1.0
 70
     8
 71
     3
 72
     8
 73
     4
 74
     0
 42
0.0000000001
 43
0.0000000001
 12
1.0
 22
0.0
 32
0.0
 13
1.0
 23
0.0
 33
0.0
 40
0.0
 40
0.0
 40
0.0
 40
0.0
 40
1.0
 40
1.0
 40
1.0
 40
1.0
 10
331.1012128300516
 20
-145.3610323717769
 30
0.0
 10
331.4456009536559
 20
-144.1527667630648
 30
0.0
 10
331.0006055250748
 20
-142.8578886431576
 30
0.0
 10
329.9862281983536
 20
-142.1165738652714
 30
0.0
  0
ENDBLK
  5
1E6
330
1E3
100
AcDbEntity
  8
0
100
AcDbBlockEnd
  0
BLOCK
  5
1EA
330
1E8
100
AcDbEntity
  8
0
100
AcDbBlockBegin
  2
block 64
 70
     0
 10
0.0
 20
0.0
 30
0.0
  3
block 64
  1

  0
POLYLINE
  5
1EC
330
1E8
100
AcDbEntity
  8
Exterieur
370
     0
100
AcDb2dPolyline
 66
     1
 10
0.0
 20
0.0
 30
0.0
  0
VERTEX
  5
1ED
330
1EC
100
AcDbEntity
  8
Exterieur
370
     0
100
AcDbVertex
100
AcDb2dVertex
 10
329.9862281983645
 20
-142.1165738652342
 30
0.0
  0
VERTEX
  5
1EE
330
1EC
100
AcDbEntity
  8
Exterieur
370
     0
100
AcDbVertex
100
AcDb2dVertex
 10
319.4903360402647
 20
-134.4460948837339
 30
0.0
  0
SEQEND
  5
1EF
330
1EC
100
AcDbEntity
  8
Exterieur
370
     0
  0
ENDBLK
  5
1EB
330
1E8
100
AcDbEntity
  8
0
100
AcDbBlockEnd
  0
BLOCK
  5
1F2
330
1F0
100
AcDbEntity
  8
0
100
AcDbBlockBegin
  2
block 65
 70
     0
 10
0.0
 20
0.0
 30
0.0
  3
block 65
  1

  0
SPLINE
  5
1F4
330
1F0
100
AcDbEntity
  8
Exterieur
370
     0
100
AcDbSpline
210
0.0
220
0.0
230
1.0
 70
     8
 71
     3
 72
     8
 73
     4
 74
     0
 42
0.0000000001
 43
0.0000000001
 12
1.0
 22
0.0
 32
0.0
 13
1.0
 23
0.0
 33
0.0
 40
0.0
 40
0.0
 40
0.0
 40
0.0
 40
1.0
 40
1.0
 40
1.0
 40
1.0
 10
319.4903360402538
 20
-134.4460948837711
 30
0.0
 10
318.9765266684803
 20
-134.0705990300304
 30
0.0
 10
318.3566194145046
 20
-133.8682238433343
 30
0.0
 10
317.7202255060645
 20
-133.8682238433343
 30
0.0
  0
ENDBLK
  5
1F3
330
1F0
100
AcDbEntity
  8
0
100
AcDbBlockEnd
  0
BLOCK
  5
1F7
330
1F5
100
AcDbEntity
  8
0
100
AcDbBlockBegin
  2
block 66
 70
     0
 10
0.0
 20
0.0
 30
0.0
  3
block 66
  1

  0
POLYLINE
  5
1F9
330
1F5
100
AcDbEntity
  8
Exterieur
370
     0
100
AcDb2dPolyline
 66
     1
 10
0.0
 20
0.0
 30
0.0
  0
VERTEX
  5
1FA
330
1F9
100
AcDbEntity
  8
Exterieur
370
     0
100
AcDbVertex
100
AcDb2dVertex
 10
317.7202255060645
 20
-133.8682238433343
 30
0.0
  0
VERTEX
  5
1FB
330
1F9
100
AcDbEntity
  8
Exterieur
370
     0
100
AcDbVertex
100
AcDb2dVertex
 10
304.5458575288647
 20
-133.8682238433343
 30
0.0
  0
SEQEND
  5
1FC
330
1F9
100
AcDbEntity
  8
Exterieur
370
     0
  0
ENDBLK
  5
1F8
330
1F5
100
AcDbEntity
  8
0
100
AcDbBlockEnd
  0
BLOCK
  5
1FF
330
1FD
100
AcDbEntity
  8
0
100
AcDbBlockBegin
  2
block 67
 70
     0
 10
0.0
 20
0.0
 30
0.0
  3
block 67
  1

  0
SPLINE
  5
201
330
1FD
100
AcDbEntity
  8
Exterieur
370
     0
100
AcDbSpline
210
0.0
220
0.0
230
1.0
 70
     8
 71
     3
 72
     8
 73
     4
 74
     0
 42
0.0000000001
 43
0.0000000001
 12
1.0
 22
0.0
 32
0.0
 13
1.0
 23
0.0
 33
0.0
 40
0.0
 40
0.0
 40
0.0
 40
0.0
 40
1.0
 40
1.0
 40
1.0
 40
1.0
 10
304.5458575288647
 20
-133.8682238433343
 30
0.0
 10
303.9113365931936
 20
-133.8682238433343
 30
0.0
 10
303.29315513681
 20
-134.0694109637824
 30
0.0
 10
302.780174852276
 20
-134.4428651717976
 30
0.0
  0
ENDBLK
  5
200
330
1FD
100
AcDbEntity
  8
0
100
AcDbBlockEnd
  0
BLOCK
  5
204
330
202
100
AcDbEntity
  8
0
100
AcDbBlockBegin
  2
block 68
 70
     0
 10
0.0
 20
0.0
 30
0.0
  3
block 68
  1

  0
POLYLINE
  5
206
330
202
100
AcDbEntity
  8
Exterieur
370
     0
100
AcDb2dPolyline
 66
     1
 10
0.0
 20
0.0
 30
0.0
  0
VERTEX
  5
207
330
206
100
AcDbEntity
  8
Exterieur
370
     0
100
AcDbVertex
100
AcDb2dVertex
 10
302.7801748522645
 20
-134.4428651718341
 30
0.0
  0
VERTEX
  5
208
330
206
100
AcDbEntity
  8
Exterieur
370
     0
100
AcDbVertex
100
AcDb2dVertex
 10
292.2702872755651
 20
-142.0941567703337
 30
0.0
  0
SEQEND
  5
209
330
206
100
AcDbEntity
  8
Exterieur
370
     0
  0
ENDBLK
  5
205
330
202
100
AcDbEntity
  8
0
100
AcDbBlockEnd
  0
BLOCK
  5
20C
330
20A
100
AcDbEntity
  8
0
100
AcDbBlockBegin
  2
block 69
 70
     0
 10
0.0
 20
0.0
 30
0.0
  3
block 69
  1

  0
SPLINE
  5
20E
330
20A
100
AcDbEntity
  8
Exterieur
370
     0
100
AcDbSpline
210
0.0
220
0.0
230
1.0
 70
     8
 71
     3
 72
     8
 73
     4
 74
     0
 42
0.0000000001
 43
0.0000000001
 12
1.0
 22
0.0
 32
0.0
 13
1.0
 23
0.0
 33
0.0
 40
0.0
 40
0.0
 40
0.0
 40
0.0
 40
1.0
 40
1.0
 40
1.0
 40
1.0
 10
292.2702872755766
 20
-142.0941567703972
 30
0.0
 10
291.2398734389313
 20
-142.8443072048192
 30
0.0
 10
290.7959334893535
 20
-144.1636473924157
 30
0.0
 10
291.1632601304682
 20
-145.3841184030253
 30
0.0
  0
ENDBLK
  5
20D
330
20A
100
AcDbEntity
  8
0
100
AcDbBlockEnd
  0
BLOCK
  5
211
330
20F
100
AcDbEntity
  8
0
100
AcDbBlockBegin
  2
block 70
 70
     0
 10
0.0
 20
0.0
 30
0.0
  3
block 70
  1

  0
POLYLINE
  5
213
330
20F
100
AcDbEntity
  8
Exterieur
370
     0
100
AcDb2dPolyline
 66
     1
 10
0.0
 20
0.0
 30
0.0
  0
VERTEX
  5
214
330
213
100
AcDbEntity
  8
Exterieur
370
     0
100
AcDbVertex
100
AcDb2dVertex
 10
291.1632601304651
 20
-145.3841184030337
 30
0.0
  0
VERTEX
  5
215
330
213
100
AcDbEntity
  8
Exterieur
370
     0
100
AcDbVertex
100
AcDb2dVertex
 10
293.5574645281646
 20
-153.3390466162335
 30
0.0
  0
SEQEND
  5
216
330
213
100
AcDbEntity
  8
Exterieur
370
     0
  0
ENDBLK
  5
212
330
20F
100
AcDbEntity
  8
0
100
AcDbBlockEnd
  0
BLOCK
  5
219
330
217
100
AcDbEntity
  8
0
100
AcDbBlockBegin
  2
block 71
 70
     0
 10
0.0
 20
0.0
 30
0.0
  3
block 71
  1

  0
POLYLINE
  5
21B
330
217
100
AcDbEntity
  8
Exterieur
370
     0
100
AcDb2dPolyline
 66
     1
 10
0.0
 20
0.0
 30
0.0
  0
VERTEX
  5
21C
330
21B
100
AcDbEntity
  8
Exterieur
370
     0
100
AcDbVertex
100
AcDb2dVertex
 10
293.5574645281646
 20
-153.3390466162335
 30
0.0
  0
VERTEX
  5
21D
330
21B
100
AcDbEntity
  8
Exterieur
370
     0
100
AcDbVertex
100
AcDb2dVertex
 10
303.4407689534647
 20
-153.3390466162335
 30
0.0
  0
SEQEND
  5
21E
330
21B
100
AcDbEntity
  8
Exterieur
370
     0
  0
ENDBLK
  5
21A
330
217
100
AcDbEntity
  8
0
100
AcDbBlockEnd
  0
BLOCK
  5
221
330
21F
100
AcDbEntity
  8
0
100
AcDbBlockBegin
  2
block 72
 70
     0
 10
0.0
 20
0.0
 30
0.0
  3
block 72
  1

  0
INSERT
  5
224
330
21F
100
AcDbEntity
  8
Exterieur
100
AcDbBlockReference
  2
block 73
 10
0.0
 20
0.0
 30
0.0
  0
INSERT
  5
22C
330
21F
100
AcDbEntity
  8
Exterieur
100
AcDbBlockReference
  2
block 74
 10
0.0
 20
0.0
 30
0.0
  0
INSERT
  5
231
330
21F
100
AcDbEntity
  8
Exterieur
100
AcDbBlockReference
  2
block 75
 10
0.0
 20
0.0
 30
0.0
  0
INSERT
  5
239
330
21F
100
AcDbEntity
  8
Exterieur
100
AcDbBlockReference
  2
block 76
 10
0.0
 20
0.0
 30
0.0
  0
INSERT
  5
23E
330
21F
100
AcDbEntity
  8
Exterieur
100
AcDbBlockReference
  2
block 77
 10
0.0
 20
0.0
 30
0.0
  0
INSERT
  5
246
330
21F
100
AcDbEntity
  8
Exterieur
100
AcDbBlockReference
  2
block 78
 10
0.0
 20
0.0
 30
0.0
  0
INSERT
  5
24E
330
21F
100
AcDbEntity
  8
Exterieur
100
AcDbBlockReference
  2
block 79
 10
0.0
 20
0.0
 30
0.0
  0
INSERT
  5
256
330
21F
100
AcDbEntity
  8
Exterieur
100
AcDbBlockReference
  2
block 80
 10
0.0
 20
0.0
 30
0.0
  0
INSERT
  5
25B
330
21F
100
AcDbEntity
  8
Exterieur
100
AcDbBlockReference
  2
block 81
 10
0.0
 20
0.0
 30
0.0
  0
INSERT
  5
263
330
21F
100
AcDbEntity
  8
Exterieur
100
AcDbBlockReference
  2
block 82
 10
0.0
 20
0.0
 30
0.0
  0
INSERT
  5
268
330
21F
100
AcDbEntity
  8
Exterieur
100
AcDbBlockReference
  2
block 83
 10
0.0
 20
0.0
 30
0.0
  0
INSERT
  5
270
330
21F
100
AcDbEntity
  8
Exterieur
100
AcDbBlockReference
  2
block 84
 10
0.0
 20
0.0
 30
0.0
  0
INSERT
  5
275
330
21F
100
AcDbEntity
  8
Exterieur
100
AcDbBlockReference
  2
block 85
 10
0.0
 20
0.0
 30
0.0
  0
INSERT
  5
27D
330
21F
100
AcDbEntity
  8
Exterieur
100
AcDbBlockReference
  2
block 86
 10
0.0
 20
0.0
 30
0.0
  0
INSERT
  5
282
330
21F
100
AcDbEntity
  8
Exterieur
100
AcDbBlockReference
  2
block 87
 10
0.0
 20
0.0
 30
0.0
  0
INSERT
  5
28A
330
21F
100
AcDbEntity
  8
Exterieur
100
AcDbBlockReference
  2
block 88
 10
0.0
 20
0.0
 30
0.0
  0
ENDBLK
  5
222
330
21F
100
AcDbEntity
  8
0
100
AcDbBlockEnd
  0
BLOCK
  5
225
330
223
100
AcDbEntity
  8
0
100
AcDbBlockBegin
  2
block 73
 70
     0
 10
0.0
 20
0.0
 30
0.0
  3
block 73
  1

  0
POLYLINE
  5
227
330
223
100
AcDbEntity
  8
Exterieur
370
     0
100
AcDb2dPolyline
 66
     1
 10
0.0
 20
0.0
 30
0.0
  0
VERTEX
  5
228
330
227
100
AcDbEntity
  8
Exterieur
370
     0
100
AcDbVertex
100
AcDb2dVertex
 10
303.6957490830667
 20
-180.6945043391581
 30
0.0
  0
VERTEX
  5
229
330
227
100
AcDbEntity
  8
Exterieur
370
     0
100
AcDbVertex
100
AcDb2dVertex
 10
304.0126070367668
 20
-185.7150766895586
 30
0.0
  0
SEQEND
  5
22A
330
227
100
AcDbEntity
  8
Exterieur
370
     0
  0
ENDBLK
  5
226
330
223
100
AcDbEntity
  8
0
100
AcDbBlockEnd
  0
BLOCK
  5
22D
330
22B
100
AcDbEntity
  8
0
100
AcDbBlockBegin
  2
block 74
 70
     0
 10
0.0
 20
0.0
 30
0.0
  3
block 74
  1

  0
SPLINE
  5
22F
330
22B
100
AcDbEntity
  8
Exterieur
370
     0
100
AcDbSpline
210
0.0
220
0.0
230
1.0
 70
     8
 71
     3
 72
     8
 73
     4
 74
     0
 42
0.0000000001
 43
0.0000000001
 12
1.0
 22
0.0
 32
0.0
 13
1.0
 23
0.0
 33
0.0
 40
0.0
 40
0.0
 40
0.0
 40
0.0
 40
1.0
 40
1.0
 40
1.0
 40
1.0
 10
304.0126070367494
 20
-185.7150766895932
 30
0.0
 10
304.0292300908759
 20
-185.9784667827664
 30
0.0
 10
304.2477000947777
 20
-186.1835833886581
 30
0.0
 10
304.511614223067
 20
-186.1835833886581
 30
0.0
  0
ENDBLK
  5
22E
330
22B
100
AcDbEntity
  8
0
100
AcDbBlockEnd
  0
BLOCK
  5
232
330
230
100
AcDbEntity
  8
0
100
AcDbBlockBegin
  2
block 75
 70
     0
 10
0.0
 20
0.0
 30
0.0
  3
block 75
  1

  0
POLYLINE
  5
234
330
230
100
AcDbEntity
  8
Exterieur
370
     0
100
AcDb2dPolyline
 66
     1
 10
0.0
 20
0.0
 30
0.0
  0
VERTEX
  5
235
330
234
100
AcDbEntity
  8
Exterieur
370
     0
100
AcDbVertex
100
AcDb2dVertex
 10
304.511614223067
 20
-186.1835833886581
 30
0.0
  0
VERTEX
  5
236
330
234
100
AcDbEntity
  8
Exterieur
370
     0
100
AcDbVertex
100
AcDb2dVertex
 10
318.3140578562666
 20
-186.1835833886581
 30
0.0
  0
SEQEND
  5
237
330
234
100
AcDbEntity
  8
Exterieur
370
     0
  0
ENDBLK
  5
233
330
230
100
AcDbEntity
  8
0
100
AcDbBlockEnd
  0
BLOCK
  5
23A
330
238
100
AcDbEntity
  8
0
100
AcDbBlockBegin
  2
block 76
 70
     0
 10
0.0
 20
0.0
 30
0.0
  3
block 76
  1

  0
SPLINE
  5
23C
330
238
100
AcDbEntity
  8
Exterieur
370
     0
100
AcDbSpline
210
0.0
220
0.0
230
1.0
 70
     8
 71
     3
 72
     8
 73
     4
 74
     0
 42
0.0000000001
 43
0.0000000001
 12
1.0
 22
0.0
 32
0.0
 13
1.0
 23
0.0
 33
0.0
 40
0.0
 40
0.0
 40
0.0
 40
0.0
 40
1.0
 40
1.0
 40
1.0
 40
1.0
 10
318.3140578562666
 20
-186.1835833886581
 30
0.0
 10
318.5754290112292
 20
-186.1835833886581
 30
0.0
 10
318.7926989240334
 20
-185.9822765571338
 30
0.0
 10
318.8126055705023
 20
-185.7216645733863
 30
0.0
  0
ENDBLK
  5
23B
330
238
100
AcDbEntity
  8
0
100
AcDbBlockEnd
  0
BLOCK
  5
23F
330
23D
100
AcDbEntity
  8
0
100
AcDbBlockBegin
  2
block 77
 70
     0
 10
0.0
 20
0.0
 30
0.0
  3
block 77
  1

  0
POLYLINE
  5
241
330
23D
100
AcDbEntity
  8
Exterieur
370
     0
100
AcDb2dPolyline
 66
     1
 10
0.0
 20
0.0
 30
0.0
  0
VERTEX
  5
242
330
241
100
AcDbEntity
  8
Exterieur
370
     0
100
AcDbVertex
100
AcDb2dVertex
 10
318.812605570467
 20
-185.7216645733581
 30
0.0
  0
VERTEX
  5
243
330
241
100
AcDbEntity
  8
Exterieur
370
     0
100
AcDbVertex
100
AcDb2dVertex
 10
319.1957450289671
 20
-180.7057150277581
 30
0.0
  0
SEQEND
  5
244
330
241
100
AcDbEntity
  8
Exterieur
370
     0
  0
ENDBLK
  5
240
330
23D
100
AcDbEntity
  8
0
100
AcDbBlockEnd
  0
BLOCK
  5
247
330
245
100
AcDbEntity
  8
0
100
AcDbBlockBegin
  2
block 78
 70
     0
 10
0.0
 20
0.0
 30
0.0
  3
block 78
  1

  0
POLYLINE
  5
249
330
245
100
AcDbEntity
  8
Exterieur
370
     0
100
AcDb2dPolyline
 66
     1
 10
0.0
 20
0.0
 30
0.0
  0
VERTEX
  5
24A
330
249
100
AcDbEntity
  8
Exterieur
370
     0
100
AcDbVertex
100
AcDb2dVertex
 10
319.1957450289671
 20
-180.7057150277581
 30
0.0
  0
VERTEX
  5
24B
330
249
100
AcDbEntity
  8
Exterieur
370
     0
100
AcDbVertex
100
AcDb2dVertex
 10
329.0790494542671
 20
-180.7057150277581
 30
0.0
  0
SEQEND
  5
24C
330
249
100
AcDbEntity
  8
Exterieur
370
     0
  0
ENDBLK
  5
248
330
245
100
AcDbEntity
  8
0
100
AcDbBlockEnd
  0
BLOCK
  5
24F
330
24D
100
AcDbEntity
  8
0
100
AcDbBlockBegin
  2
block 79
 70
     0
 10
0.0
 20
0.0
 30
0.0
  3
block 79
  1

  0
POLYLINE
  5
251
330
24D
100
AcDbEntity
  8
Exterieur
370
     0
100
AcDb2dPolyline
 66
     1
 10
0.0
 20
0.0
 30
0.0
  0
VERTEX
  5
252
330
251
100
AcDbEntity
  8
Exterieur
370
     0
100
AcDbVertex
100
AcDb2dVertex
 10
329.0790494542671
 20
-180.7057150277581
 30
0.0
  0
VERTEX
  5
253
330
251
100
AcDbEntity
  8
Exterieur
370
     0
100
AcDbVertex
100
AcDb2dVertex
 10
331.3561929596671
 20
-172.7164900946585
 30
0.0
  0
SEQEND
  5
254
330
251
100
AcDbEntity
  8
Exterieur
370
     0
  0
ENDBLK
  5
250
330
24D
100
AcDbEntity
  8
0
100
AcDbBlockEnd
  0
BLOCK
  5
257
330
255
100
AcDbEntity
  8
0
100
AcDbBlockBegin
  2
block 80
 70
     0
 10
0.0
 20
0.0
 30
0.0
  3
block 80
  1

  0
SPLINE
  5
259
330
255
100
AcDbEntity
  8
Exterieur
370
     0
100
AcDbSpline
210
0.0
220
0.0
230
1.0
 70
     8
 71
     3
 72
     8
 73
     4
 74
     0
 42
0.0000000001
 43
0.0000000001
 12
1.0
 22
0.0
 32
0.0
 13
1.0
 23
0.0
 33
0.0
 40
0.0
 40
0.0
 40
0.0
 40
0.0
 40
1.0
 40
1.0
 40
1.0
 40
1.0
 10
331.3561929596536
 20
-172.7164900947015
 30
0.0
 10
331.700581083258
 20
-171.5082244859894
 30
0.0
 10
331.2555856546768
 20
-170.2133463660822
 30
0.0
 10
330.2412083279557
 20
-169.472031588196
 30
0.0
  0
ENDBLK
  5
258
330
255
100
AcDbEntity
  8
0
100
AcDbBlockEnd
  0
BLOCK
  5
25C
330
25A
100
AcDbEntity
  8
0
100
AcDbBlockBegin
  2
block 81
 70
     0
 10
0.0
 20
0.0
 30
0.0
  3
block 81
  1

  0
POLYLINE
  5
25E
330
25A
100
AcDbEntity
  8
Exterieur
370
     0
100
AcDb2dPolyline
 66
     1
 10
0.0
 20
0.0
 30
0.0
  0
VERTEX
  5
25F
330
25E
100
AcDbEntity
  8
Exterieur
370
     0
100
AcDbVertex
100
AcDb2dVertex
 10
330.2412083279666
 20
-169.4720315881588
 30
0.0
  0
VERTEX
  5
260
330
25E
100
AcDbEntity
  8
Exterieur
370
     0
100
AcDbVertex
100
AcDb2dVertex
 10
319.7453161698668
 20
-161.8015526066585
 30
0.0
  0
SEQEND
  5
261
330
25E
100
AcDbEntity
  8
Exterieur
370
     0
  0
ENDBLK
  5
25D
330
25A
100
AcDbEntity
  8
0
100
AcDbBlockEnd
  0
BLOCK
  5
264
330
262
100
AcDbEntity
  8
0
100
AcDbBlockBegin
  2
block 82
 70
     0
 10
0.0
 20
0.0
 30
0.0
  3
block 82
  1

  0
SPLINE
  5
266
330
262
100
AcDbEntity
  8
Exterieur
370
     0
100
AcDbSpline
210
0.0
220
0.0
230
1.0
 70
     8
 71
     3
 72
     8
 73
     4
 74
     0
 42
0.0000000001
 43
0.0000000001
 12
1.0
 22
0.0
 32
0.0
 13
1.0
 23
0.0
 33
0.0
 40
0.0
 40
0.0
 40
0.0
 40
0.0
 40
1.0
 40
1.0
 40
1.0
 40
1.0
 10
319.7453161698559
 20
-161.8015526066957
 30
0.0
 10
319.2315067980824
 20
-161.426056752955
 30
0.0
 10
318.6115995441067
 20
-161.2236815662586
 30
0.0
 10
317.9752056356666
 20
-161.2236815662586
 30
0.0
  0
ENDBLK
  5
265
330
262
100
AcDbEntity
  8
0
100
AcDbBlockEnd
  0
BLOCK
  5
269
330
267
100
AcDbEntity
  8
0
100
AcDbBlockBegin
  2
block 83
 70
     0
 10
0.0
 20
0.0
 30
0.0
  3
block 83
  1

  0
POLYLINE
  5
26B
330
267
100
AcDbEntity
  8
Exterieur
370
     0
100
AcDb2dPolyline
 66
     1
 10
0.0
 20
0.0
 30
0.0
  0
VERTEX
  5
26C
330
26B
100
AcDbEntity
  8
Exterieur
370
     0
100
AcDbVertex
100
AcDb2dVertex
 10
317.9752056356666
 20
-161.2236815662586
 30
0.0
  0
VERTEX
  5
26D
330
26B
100
AcDbEntity
  8
Exterieur
370
     0
100
AcDbVertex
100
AcDb2dVertex
 10
304.8008376584667
 20
-161.2236815662586
 30
0.0
  0
SEQEND
  5
26E
330
26B
100
AcDbEntity
  8
Exterieur
370
     0
  0
ENDBLK
  5
26A
330
267
100
AcDbEntity
  8
0
100
AcDbBlockEnd
  0
BLOCK
  5
271
330
26F
100
AcDbEntity
  8
0
100
AcDbBlockBegin
  2
block 84
 70
     0
 10
0.0
 20
0.0
 30
0.0
  3
block 84
  1

  0
SPLINE
  5
273
330
26F
100
AcDbEntity
  8
Exterieur
370
     0
100
AcDbSpline
210
0.0
220
0.0
230
1.0
 70
     8
 71
     3
 72
     8
 73
     4
 74
     0
 42
0.0000000001
 43
0.0000000001
 12
1.0
 22
0.0
 32
0.0
 13
1.0
 23
0.0
 33
0.0
 40
0.0
 40
0.0
 40
0.0
 40
0.0
 40
1.0
 40
1.0
 40
1.0
 40
1.0
 10
304.8008376584667
 20
-161.2236815662586
 30
0.0
 10
304.1663167227957
 20
-161.2236815662586
 30
0.0
 10
303.5481352664121
 20
-161.424868686707
 30
0.0
 10
303.0351549818781
 20
-161.7983228947222
 30
0.0
  0
ENDBLK
  5
272
330
26F
100
AcDbEntity
  8
0
100
AcDbBlockEnd
  0
BLOCK
  5
276
330
274
100
AcDbEntity
  8
0
100
AcDbBlockBegin
  2
block 85
 70
     0
 10
0.0
 20
0.0
 30
0.0
  3
block 85
  1

  0
POLYLINE
  5
278
330
274
100
AcDbEntity
  8
Exterieur
370
     0
100
AcDb2dPolyline
 66
     1
 10
0.0
 20
0.0
 30
0.0
  0
VERTEX
  5
279
330
278
100
AcDbEntity
  8
Exterieur
370
     0
100
AcDbVertex
100
AcDb2dVertex
 10
303.0351549818666
 20
-161.7983228947587
 30
0.0
  0
VERTEX
  5
27A
330
278
100
AcDbEntity
  8
Exterieur
370
     0
100
AcDbVertex
100
AcDb2dVertex
 10
292.5252674051671
 20
-169.4496144932583
 30
0.0
  0
SEQEND
  5
27B
330
278
100
AcDbEntity
  8
Exterieur
370
     0
  0
ENDBLK
  5
277
330
274
100
AcDbEntity
  8
0
100
AcDbBlockEnd
  0
BLOCK
  5
27E
330
27C
100
AcDbEntity
  8
0
100
AcDbBlockBegin
  2
block 86
 70
     0
 10
0.0
 20
0.0
 30
0.0
  3
block 86
  1

  0
SPLINE
  5
280
330
27C
100
AcDbEntity
  8
Exterieur
370
     0
100
AcDbSpline
210
0.0
220
0.0
230
1.0
 70
     8
 71
     3
 72
     8
 73
     4
 74
     0
 42
0.0000000001
 43
0.0000000001
 12
1.0
 22
0.0
 32
0.0
 13
1.0
 23
0.0
 33
0.0
 40
0.0
 40
0.0
 40
0.0
 40
0.0
 40
1.0
 40
1.0
 40
1.0
 40
1.0
 10
292.5252674051787
 20
-169.4496144933218
 30
0.0
 10
291.4948535685334
 20
-170.1997649277438
 30
0.0
 10
291.0509136189556
 20
-171.5191051153403
 30
0.0
 10
291.4182402600703
 20
-172.7395761259499
 30
0.0
  0
ENDBLK
  5
27F
330
27C
100
AcDbEntity
  8
0
100
AcDbBlockEnd
  0
BLOCK
  5
283
330
281
100
AcDbEntity
  8
0
100
AcDbBlockBegin
  2
block 87
 70
     0
 10
0.0
 20
0.0
 30
0.0
  3
block 87
  1

  0
POLYLINE
  5
285
330
281
100
AcDbEntity
  8
Exterieur
370
     0
100
AcDb2dPolyline
 66
     1
 10
0.0
 20
0.0
 30
0.0
  0
VERTEX
  5
286
330
285
100
AcDbEntity
  8
Exterieur
370
     0
100
AcDbVertex
100
AcDb2dVertex
 10
291.4182402600671
 20
-172.7395761259583
 30
0.0
  0
VERTEX
  5
287
330
285
100
AcDbEntity
  8
Exterieur
370
     0
100
AcDbVertex
100
AcDb2dVertex
 10
293.8124446577667
 20
-180.6945043391581
 30
0.0
  0
SEQEND
  5
288
330
285
100
AcDbEntity
  8
Exterieur
370
     0
  0
ENDBLK
  5
284
330
281
100
AcDbEntity
  8
0
100
AcDbBlockEnd
  0
BLOCK
  5
28B
330
289
100
AcDbEntity
  8
0
100
AcDbBlockBegin
  2
block 88
 70
     0
 10
0.0
 20
0.0
 30
0.0
  3
block 88
  1

  0
POLYLINE
  5
28D
330
289
100
AcDbEntity
  8
Exterieur
370
     0
100
AcDb2dPolyline
 66
     1
 10
0.0
 20
0.0
 30
0.0
  0
VERTEX
  5
28E
330
28D
100
AcDbEntity
  8
Exterieur
370
     0
100
AcDbVertex
100
AcDb2dVertex
 10
293.8124446577667
 20
-180.6945043391581
 30
0.0
  0
VERTEX
  5
28F
330
28D
100
AcDbEntity
  8
Exterieur
370
     0
100
AcDbVertex
100
AcDb2dVertex
 10
303.6957490830667
 20
-180.6945043391581
 30
0.0
  0
SEQEND
  5
290
330
28D
100
AcDbEntity
  8
Exterieur
370
     0
  0
ENDBLK
  5
28C
330
289
100
AcDbEntity
  8
0
100
AcDbBlockEnd
  0
BLOCK
  5
294
330
292
100
AcDbEntity
  8
0
100
AcDbBlockBegin
  2
block 89
 70
     0
 10
0.0
 20
0.0
 30
0.0
  3
block 89
  1

  0
SPLINE
  5
296
330
292
100
AcDbEntity
  8
interieur
370
     0
100
AcDbSpline
210
0.0
220
0.0
230
1.0
 70
    11
 71
     3
 72
    20
 73
    16
 74
     0
 42
0.0000000001
 43
0.0000000001
 12
1.0
 22
0.0
 32
0.0
 13
1.0
 23
0.0
 33
0.0
 40
0.0
 40
0.0
 40
0.0
 40
0.0
 40
1.0
 40
1.0
 40
1.0
 40
2.0
 40
2.0
 40
2.0
 40
3.0
 40
3.0
 40
3.0
 40
4.0
 40
4.0
 40
4.0
 40
5.0
 40
5.0
 40
5.0
 40
5.0
 10
238.8145210918985
 20
-199.3251204825853
 30
0.0
 10
238.8145210918985
 20
-198.4966933578431
 30
0.0
 10
239.4860939671489
 20
-197.8251204825927
 30
0.0
 10
240.3145210918912
 20
-197.8251204825927
 30
0.0
 10
241.1429482166334
 20
-197.8251204825927
 30
0.0
 10
241.8145210918845
 20
-198.4966933578431
 30
0.0
 10
241.8145210918845
 20
-199.3251204825853
 30
0.0
 10
241.8145210918845
 20
-200.1535476073276
 30
0.0
 10
241.1429482166334
 20
-200.8251204825787
 30
0.0
 10
240.3145210918912
 20
-200.8251204825787
 30
0.0
 10
239.4860939671489
 20
-200.8251204825787
 30
0.0
 10
238.8145210918985
 20
-200.1535476073276
 30
0.0
 10
238.8145210918985
 20
-199.3251204825853
 30
0.0
 10
238.8145210918985
 20
-199.3251204825853
 30
0.0
 10
238.8145210918985
 20
-199.3251204825853
 30
0.0
 10
238.8145210918985
 20
-199.3251204825853
 30
0.0
  0
ENDBLK
  5
295
330
292
100
AcDbEntity
  8
0
100
AcDbBlockEnd
  0
BLOCK
  5
299
330
297
100
AcDbEntity
  8
0
100
AcDbBlockBegin
  2
block 90
 70
     0
 10
0.0
 20
0.0
 30
0.0
  3
block 90
  1

  0
POLYLINE
  5
29B
330
297
100
AcDbEntity
  8
interieur
370
     0
100
AcDb2dPolyline
 66
     1
 10
0.0
 20
0.0
 30
0.0
  0
VERTEX
  5
29C
330
29B
100
AcDbEntity
  8
interieur
370
     0
100
AcDbVertex
100
AcDb2dVertex
 10
239.6074143106916
 20
-192.9611594519852
 30
0.0
  0
VERTEX
  5
29D
330
29B
100
AcDbEntity
  8
interieur
370
     0
100
AcDbVertex
100
AcDb2dVertex
 10
246.6784821225914
 20
-200.0322272637855
 30
0.0
  0
SEQEND
  5
29E
330
29B
100
AcDbEntity
  8
interieur
370
     0
  0
ENDBLK
  5
29A
330
297
100
AcDbEntity
  8
0
100
AcDbBlockEnd
  0
BLOCK
  5
2A1
330
29F
100
AcDbEntity
  8
0
100
AcDbBlockBegin
  2
block 91
 70
     0
 10
0.0
 20
0.0
 30
0.0
  3
block 91
  1

  0
POLYLINE
  5
2A3
330
29F
100
AcDbEntity
  8
interieur
370
     0
100
AcDb2dPolyline
 66
     1
 10
0.0
 20
0.0
 30
0.0
  0
VERTEX
  5
2A4
330
2A3
100
AcDbEntity
  8
interieur
370
     0
100
AcDbVertex
100
AcDb2dVertex
 10
233.2434532799914
 20
-199.3251204825853
 30
0.0
  0
VERTEX
  5
2A5
330
2A3
100
AcDbEntity
  8
interieur
370
     0
100
AcDbVertex
100
AcDb2dVertex
 10
239.6074143106916
 20
-192.9611594519852
 30
0.0
  0
SEQEND
  5
2A6
330
2A3
100
AcDbEntity
  8
interieur
370
     0
  0
ENDBLK
  5
2A2
330
29F
100
AcDbEntity
  8
0
100
AcDbBlockEnd
  0
BLOCK
  5
2A9
330
2A7
100
AcDbEntity
  8
0
100
AcDbBlockBegin
  2
block 92
 70
     0
 10
0.0
 20
0.0
 30
0.0
  3
block 92
  1

  0
POLYLINE
  5
2AB
330
2A7
100
AcDbEntity
  8
interieur
370
     0
100
AcDb2dPolyline
 66
     1
 10
0.0
 20
0.0
 30
0.0
  0
VERTEX
  5
2AC
330
2AB
100
AcDbEntity
  8
interieur
370
     0
100
AcDbVertex
100
AcDb2dVertex
 10
226.0309641118911
 20
-192.1126313144857
 30
0.0
  0
VERTEX
  5
2AD
330
2AB
100
AcDbEntity
  8
interieur
370
     0
100
AcDbVertex
100
AcDb2dVertex
 10
233.2434532799914
 20
-199.3251204825853
 30
0.0
  0
SEQEND
  5
2AE
330
2AB
100
AcDbEntity
  8
interieur
370
     0
  0
ENDBLK
  5
2AA
330
2A7
100
AcDbEntity
  8
0
100
AcDbBlockEnd
  0
BLOCK
  5
2B1
330
2AF
100
AcDbEntity
  8
0
100
AcDbBlockBegin
  2
block 93
 70
     0
 10
0.0
 20
0.0
 30
0.0
  3
block 93
  1

  0
POLYLINE
  5
2B3
330
2AF
100
AcDbEntity
  8
interieur
370
     0
100
AcDb2dPolyline
 66
     1
 10
0.0
 20
0.0
 30
0.0
  0
VERTEX
  5
2B4
330
2B3
100
AcDbEntity
  8
interieur
370
     0
100
AcDbVertex
100
AcDb2dVertex
 10
226.0309641118911
 20
-192.1126313144857
 30
0.0
  0
VERTEX
  5
6D1
330
2B3
100
AcDbEntity
  8
0
100
AcDbVertex
100
AcDb2dVertex
 10
226.0309641118911
 20
-192.1126313144857
 30
0.0
  0
SEQEND
  5
2B5
330
2B3
100
AcDbEntity
  8
interieur
370
     0
  0
ENDBLK
  5
2B2
330
2AF
100
AcDbEntity
  8
0
100
AcDbBlockEnd
  0
BLOCK
  5
2B8
330
2B6
100
AcDbEntity
  8
0
100
AcDbBlockBegin
  2
block 94
 70
     0
 10
0.0
 20
0.0
 30
0.0
  3
block 94
  1

  0
POLYLINE
  5
2BA
330
2B6
100
AcDbEntity
  8
interieur
370
     0
100
AcDb2dPolyline
 66
     1
 10
0.0
 20
0.0
 30
0.0
  0
VERTEX
  5
2BB
330
2BA
100
AcDbEntity
  8
interieur
370
     0
100
AcDbVertex
100
AcDb2dVertex
 10
243.8500549977913
 20
-188.7185187647854
 30
0.0
  0
VERTEX
  5
6D2
330
2BA
100
AcDbEntity
  8
0
100
AcDbVertex
100
AcDb2dVertex
 10
243.8500549977913
 20
-188.7185187647854
 30
0.0
  0
SEQEND
  5
2BC
330
2BA
100
AcDbEntity
  8
interieur
370
     0
  0
ENDBLK
  5
2B9
330
2B6
100
AcDbEntity
  8
0
100
AcDbBlockEnd
  0
BLOCK
  5
2BF
330
2BD
100
AcDbEntity
  8
0
100
AcDbBlockBegin
  2
block 95
 70
     0
 10
0.0
 20
0.0
 30
0.0
  3
block 95
  1

  0
POLYLINE
  5
2C1
330
2BD
100
AcDbEntity
  8
interieur
370
     0
100
AcDb2dPolyline
 66
     1
 10
0.0
 20
0.0
 30
0.0
  0
VERTEX
  5
2C2
330
2C1
100
AcDbEntity
  8
interieur
370
     0
100
AcDbVertex
100
AcDb2dVertex
 10
250.9211228096911
 20
-195.7895865766852
 30
0.0
  0
VERTEX
  5
2C3
330
2C1
100
AcDbEntity
  8
interieur
370
     0
100
AcDbVertex
100
AcDb2dVertex
 10
243.8500549977913
 20
-188.7185187647854
 30
0.0
  0
SEQEND
  5
2C4
330
2C1
100
AcDbEntity
  8
interieur
370
     0
  0
ENDBLK
  5
2C0
330
2BD
100
AcDbEntity
  8
0
100
AcDbBlockEnd
  0
BLOCK
  5
2C7
330
2C5
100
AcDbEntity
  8
0
100
AcDbBlockBegin
  2
block 96
 70
     0
 10
0.0
 20
0.0
 30
0.0
  3
block 96
  1

  0
POLYLINE
  5
2C9
330
2C5
100
AcDbEntity
  8
interieur
370
     0
100
AcDb2dPolyline
 66
     1
 10
0.0
 20
0.0
 30
0.0
  0
VERTEX
  5
2CA
330
2C9
100
AcDbEntity
  8
interieur
370
     0
100
AcDbVertex
100
AcDb2dVertex
 10
246.6784821225914
 20
-200.0322272637855
 30
0.0
  0
VERTEX
  5
2CB
330
2C9
100
AcDbEntity
  8
interieur
370
     0
100
AcDbVertex
100
AcDb2dVertex
 10
250.9211228096911
 20
-195.7895865766852
 30
0.0
  0
SEQEND
  5
2CC
330
2C9
100
AcDbEntity
  8
interieur
370
     0
  0
ENDBLK
  5
2C8
330
2C5
100
AcDbEntity
  8
0
100
AcDbBlockEnd
  0
BLOCK
  5
2CF
330
2CD
100
AcDbEntity
  8
0
100
AcDbBlockBegin
  2
block 97
 70
     0
 10
0.0
 20
0.0
 30
0.0
  3
block 97
  1

  0
SPLINE
  5
2D1
330
2CD
100
AcDbEntity
  8
interieur
370
     0
100
AcDbSpline
210
0.0
220
0.0
230
1.0
 70
    11
 71
     3
 72
    20
 73
    16
 74
     0
 42
0.0000000001
 43
0.0000000001
 12
1.0
 22
0.0
 32
0.0
 13
1.0
 23
0.0
 33
0.0
 40
0.0
 40
0.0
 40
0.0
 40
0.0
 40
1.0
 40
1.0
 40
1.0
 40
2.0
 40
2.0
 40
2.0
 40
3.0
 40
3.0
 40
3.0
 40
4.0
 40
4.0
 40
4.0
 40
5.0
 40
5.0
 40
5.0
 40
5.0
 10
248.7140160284995
 20
-107.2598175720854
 30
0.0
 10
248.7140160284995
 20
-106.4313904473441
 30
0.0
 10
249.38558890375
 20
-105.7598175720941
 30
0.0
 10
250.2140160284916
 20
-105.7598175720941
 30
0.0
 10
251.0424431532332
 20
-105.7598175720941
 30
0.0
 10
251.714016028483
 20
-106.4313904473441
 30
0.0
 10
251.714016028483
 20
-107.2598175720854
 30
0.0
 10
251.714016028483
 20
-108.0882446968271
 30
0.0
 10
251.0424431532332
 20
-108.7598175720772
 30
0.0
 10
250.2140160284916
 20
-108.7598175720772
 30
0.0
 10
249.38558890375
 20
-108.7598175720772
 30
0.0
 10
248.7140160284995
 20
-108.0882446968271
 30
0.0
 10
248.7140160284995
 20
-107.2598175720854
 30
0.0
 10
248.7140160284995
 20
-107.2598175720854
 30
0.0
 10
248.7140160284995
 20
-107.2598175720854
 30
0.0
 10
248.7140160284995
 20
-107.2598175720854
 30
0.0
  0
ENDBLK
  5
2D0
330
2CD
100
AcDbEntity
  8
0
100
AcDbBlockEnd
  0
BLOCK
  5
2D4
330
2D2
100
AcDbEntity
  8
0
100
AcDbBlockBegin
  2
block 98
 70
     0
 10
0.0
 20
0.0
 30
0.0
  3
block 98
  1

  0
SPLINE
  5
2D6
330
2D2
100
AcDbEntity
  8
interieur
370
     0
100
AcDbSpline
210
0.0
220
0.0
230
1.0
 70
     8
 71
     3
 72
    14
 73
    10
 74
     0
 42
0.0000000001
 43
0.0000000001
 12
1.0
 22
0.0
 32
0.0
 13
1.0
 23
0.0
 33
0.0
 40
0.0
 40
0.0
 40
0.0
 40
0.0
 40
1.0
 40
1.0
 40
1.0
 40
2.0
 40
2.0
 40
2.0
 40
3.0
 40
3.0
 40
3.0
 40
3.0
 10
149.7492181813981
 20
-189.4256255459856
 30
0.0
 10
149.7492181813981
 20
-190.2540526707355
 30
0.0
 10
149.0776453061412
 20
-190.9256255459923
 30
0.0
 10
148.2492181813913
 20
-190.9256255459923
 30
0.0
 10
147.4207910566416
 20
-190.9256255459923
 30
0.0
 10
146.7492181813848
 20
-190.2540526707355
 30
0.0
 10
146.7492181813848
 20
-189.4256255459856
 30
0.0
 10
146.7492181813848
 20
-189.4256255459856
 30
0.0
 10
146.7492181813848
 20
-189.4256255459856
 30
0.0
 10
146.7492181813848
 20
-189.4256255459856
 30
0.0
  0
ENDBLK
  5
2D5
330
2D2
100
AcDbEntity
  8
0
100
AcDbBlockEnd
  0
BLOCK
  5
2D9
330
2D7
100
AcDbEntity
  8
0
100
AcDbBlockBegin
  2
block 99
 70
     0
 10
0.0
 20
0.0
 30
0.0
  3
block 99
  1

  0
POLYLINE
  5
2DB
330
2D7
100
AcDbEntity
  8
interieur
370
     0
100
AcDb2dPolyline
 66
     1
 10
0.0
 20
0.0
 30
0.0
  0
VERTEX
  5
2DC
330
2DB
100
AcDbEntity
  8
interieur
370
     0
100
AcDbVertex
100
AcDb2dVertex
 10
154.6131792120915
 20
-188.7185187647854
 30
0.0
  0
VERTEX
  5
2DD
330
2DB
100
AcDbEntity
  8
interieur
370
     0
100
AcDbVertex
100
AcDb2dVertex
 10
147.5421114001914
 20
-195.7895865766852
 30
0.0
  0
SEQEND
  5
2DE
330
2DB
100
AcDbEntity
  8
interieur
370
     0
  0
ENDBLK
  5
2DA
330
2D7
100
AcDbEntity
  8
0
100
AcDbBlockEnd
  0
BLOCK
  5
2E1
330
2DF
100
AcDbEntity
  8
0
100
AcDbBlockBegin
  2
block 100
 70
     0
 10
0.0
 20
0.0
 30
0.0
  3
block 100
  1

  0
POLYLINE
  5
2E3
330
2DF
100
AcDbEntity
  8
interieur
370
     0
100
AcDb2dPolyline
 66
     1
 10
0.0
 20
0.0
 30
0.0
  0
VERTEX
  5
2E4
330
2E3
100
AcDbEntity
  8
interieur
370
     0
100
AcDbVertex
100
AcDb2dVertex
 10
154.6131792120915
 20
-188.7185187647854
 30
0.0
  0
VERTEX
  5
6D3
330
2E3
100
AcDbEntity
  8
0
100
AcDbVertex
100
AcDb2dVertex
 10
154.6131792120915
 20
-188.7185187647854
 30
0.0
  0
SEQEND
  5
2E5
330
2E3
100
AcDbEntity
  8
interieur
370
     0
  0
ENDBLK
  5
2E2
330
2DF
100
AcDbEntity
  8
0
100
AcDbBlockEnd
  0
BLOCK
  5
2E8
330
2E6
100
AcDbEntity
  8
0
100
AcDbBlockBegin
  2
block 101
 70
     0
 10
0.0
 20
0.0
 30
0.0
  3
block 101
  1

  0
POLYLINE
  5
2EA
330
2E6
100
AcDbEntity
  8
interieur
370
     0
100
AcDb2dPolyline
 66
     1
 10
0.0
 20
0.0
 30
0.0
  0
VERTEX
  5
2EB
330
2EA
100
AcDbEntity
  8
interieur
370
     0
100
AcDbVertex
100
AcDb2dVertex
 10
172.4322700979914
 20
-192.1126313144857
 30
0.0
  0
VERTEX
  5
6D4
330
2EA
100
AcDbEntity
  8
0
100
AcDbVertex
100
AcDb2dVertex
 10
172.4322700979914
 20
-192.1126313144857
 30
0.0
  0
SEQEND
  5
2EC
330
2EA
100
AcDbEntity
  8
interieur
370
     0
  0
ENDBLK
  5
2E9
330
2E6
100
AcDbEntity
  8
0
100
AcDbBlockEnd
  0
BLOCK
  5
2EF
330
2ED
100
AcDbEntity
  8
0
100
AcDbBlockBegin
  2
block 102
 70
     0
 10
0.0
 20
0.0
 30
0.0
  3
block 102
  1

  0
POLYLINE
  5
2F1
330
2ED
100
AcDbEntity
  8
interieur
370
     0
100
AcDb2dPolyline
 66
     1
 10
0.0
 20
0.0
 30
0.0
  0
VERTEX
  5
2F2
330
2F1
100
AcDbEntity
  8
interieur
370
     0
100
AcDbVertex
100
AcDb2dVertex
 10
165.2197809298915
 20
-199.3251204825853
 30
0.0
  0
VERTEX
  5
2F3
330
2F1
100
AcDbEntity
  8
interieur
370
     0
100
AcDbVertex
100
AcDb2dVertex
 10
172.4322700979914
 20
-192.1126313144857
 30
0.0
  0
SEQEND
  5
2F4
330
2F1
100
AcDbEntity
  8
interieur
370
     0
  0
ENDBLK
  5
2F0
330
2ED
100
AcDbEntity
  8
0
100
AcDbBlockEnd
  0
BLOCK
  5
2F7
330
2F5
100
AcDbEntity
  8
0
100
AcDbBlockBegin
  2
block 103
 70
     0
 10
0.0
 20
0.0
 30
0.0
  3
block 103
  1

  0
POLYLINE
  5
2F9
330
2F5
100
AcDbEntity
  8
interieur
370
     0
100
AcDb2dPolyline
 66
     1
 10
0.0
 20
0.0
 30
0.0
  0
VERTEX
  5
2FA
330
2F9
100
AcDbEntity
  8
interieur
370
     0
100
AcDbVertex
100
AcDb2dVertex
 10
158.8558198991915
 20
-192.9611594519852
 30
0.0
  0
VERTEX
  5
2FB
330
2F9
100
AcDbEntity
  8
interieur
370
     0
100
AcDbVertex
100
AcDb2dVertex
 10
165.2197809298915
 20
-199.3251204825853
 30
0.0
  0
SEQEND
  5
2FC
330
2F9
100
AcDbEntity
  8
interieur
370
     0
  0
ENDBLK
  5
2F8
330
2F5
100
AcDbEntity
  8
0
100
AcDbBlockEnd
  0
BLOCK
  5
2FF
330
2FD
100
AcDbEntity
  8
0
100
AcDbBlockBegin
  2
block 104
 70
     0
 10
0.0
 20
0.0
 30
0.0
  3
block 104
  1

  0
POLYLINE
  5
301
330
2FD
100
AcDbEntity
  8
interieur
370
     0
100
AcDb2dPolyline
 66
     1
 10
0.0
 20
0.0
 30
0.0
  0
VERTEX
  5
302
330
301
100
AcDbEntity
  8
interieur
370
     0
100
AcDbVertex
100
AcDb2dVertex
 10
151.7847520872915
 20
-200.0322272637855
 30
0.0
  0
VERTEX
  5
303
330
301
100
AcDbEntity
  8
interieur
370
     0
100
AcDbVertex
100
AcDb2dVertex
 10
158.8558198991915
 20
-192.9611594519852
 30
0.0
  0
SEQEND
  5
304
330
301
100
AcDbEntity
  8
interieur
370
     0
  0
ENDBLK
  5
300
330
2FD
100
AcDbEntity
  8
0
100
AcDbBlockEnd
  0
BLOCK
  5
307
330
305
100
AcDbEntity
  8
0
100
AcDbBlockBegin
  2
block 105
 70
     0
 10
0.0
 20
0.0
 30
0.0
  3
block 105
  1

  0
POLYLINE
  5
309
330
305
100
AcDbEntity
  8
interieur
370
     0
100
AcDb2dPolyline
 66
     1
 10
0.0
 20
0.0
 30
0.0
  0
VERTEX
  5
30A
330
309
100
AcDbEntity
  8
interieur
370
     0
100
AcDbVertex
100
AcDb2dVertex
 10
147.5421114001914
 20
-195.7895865766852
 30
0.0
  0
VERTEX
  5
30B
330
309
100
AcDbEntity
  8
interieur
370
     0
100
AcDbVertex
100
AcDb2dVertex
 10
151.7847520872915
 20
-200.0322272637855
 30
0.0
  0
SEQEND
  5
30C
330
309
100
AcDbEntity
  8
interieur
370
     0
  0
ENDBLK
  5
308
330
305
100
AcDbEntity
  8
0
100
AcDbBlockEnd
  0
BLOCK
  5
30F
330
30D
100
AcDbEntity
  8
0
100
AcDbBlockBegin
  2
block 106
 70
     0
 10
0.0
 20
0.0
 30
0.0
  3
block 106
  1

  0
POLYLINE
  5
311
330
30D
100
AcDbEntity
  8
interieur
370
     0
100
AcDb2dPolyline
 66
     1
 10
0.0
 20
0.0
 30
0.0
  0
VERTEX
  5
312
330
311
100
AcDbEntity
  8
interieur
370
     0
100
AcDbVertex
100
AcDb2dVertex
 10
243.8500549977913
 20
-107.9669243532856
 30
0.0
  0
VERTEX
  5
313
330
311
100
AcDbEntity
  8
interieur
370
     0
100
AcDbVertex
100
AcDb2dVertex
 10
250.9211228096911
 20
-100.8958565414853
 30
0.0
  0
SEQEND
  5
314
330
311
100
AcDbEntity
  8
interieur
370
     0
  0
ENDBLK
  5
310
330
30D
100
AcDbEntity
  8
0
100
AcDbBlockEnd
  0
BLOCK
  5
317
330
315
100
AcDbEntity
  8
0
100
AcDbBlockBegin
  2
block 107
 70
     0
 10
0.0
 20
0.0
 30
0.0
  3
block 107
  1

  0
POLYLINE
  5
319
330
315
100
AcDbEntity
  8
interieur
370
     0
100
AcDb2dPolyline
 66
     1
 10
0.0
 20
0.0
 30
0.0
  0
VERTEX
  5
31A
330
319
100
AcDbEntity
  8
interieur
370
     0
100
AcDbVertex
100
AcDb2dVertex
 10
243.8500549977913
 20
-107.9669243532856
 30
0.0
  0
VERTEX
  5
6D5
330
319
100
AcDbEntity
  8
0
100
AcDbVertex
100
AcDb2dVertex
 10
243.8500549977913
 20
-107.9669243532856
 30
0.0
  0
SEQEND
  5
31B
330
319
100
AcDbEntity
  8
interieur
370
     0
  0
ENDBLK
  5
318
330
315
100
AcDbEntity
  8
0
100
AcDbBlockEnd
  0
BLOCK
  5
31E
330
31C
100
AcDbEntity
  8
0
100
AcDbBlockBegin
  2
block 108
 70
     0
 10
0.0
 20
0.0
 30
0.0
  3
block 108
  1

  0
POLYLINE
  5
320
330
31C
100
AcDbEntity
  8
interieur
370
     0
100
AcDb2dPolyline
 66
     1
 10
0.0
 20
0.0
 30
0.0
  0
VERTEX
  5
321
330
320
100
AcDbEntity
  8
interieur
370
     0
100
AcDbVertex
100
AcDb2dVertex
 10
232.3949251425913
 20
-110.9367728342856
 30
0.0
  0
VERTEX
  5
6D6
330
320
100
AcDbEntity
  8
0
100
AcDbVertex
100
AcDb2dVertex
 10
232.3949251425913
 20
-110.9367728342856
 30
0.0
  0
SEQEND
  5
322
330
320
100
AcDbEntity
  8
interieur
370
     0
  0
ENDBLK
  5
31F
330
31C
100
AcDbEntity
  8
0
100
AcDbBlockEnd
  0
BLOCK
  5
325
330
323
100
AcDbEntity
  8
0
100
AcDbBlockBegin
  2
block 109
 70
     0
 10
0.0
 20
0.0
 30
0.0
  3
block 109
  1

  0
POLYLINE
  5
327
330
323
100
AcDbEntity
  8
interieur
370
     0
100
AcDb2dPolyline
 66
     1
 10
0.0
 20
0.0
 30
0.0
  0
VERTEX
  5
328
330
327
100
AcDbEntity
  8
interieur
370
     0
100
AcDbVertex
100
AcDb2dVertex
 10
226.0309641118911
 20
-104.5728118035853
 30
0.0
  0
VERTEX
  5
329
330
327
100
AcDbEntity
  8
interieur
370
     0
100
AcDbVertex
100
AcDb2dVertex
 10
232.3949251425913
 20
-110.9367728342856
 30
0.0
  0
SEQEND
  5
32A
330
327
100
AcDbEntity
  8
interieur
370
     0
  0
ENDBLK
  5
326
330
323
100
AcDbEntity
  8
0
100
AcDbBlockEnd
  0
BLOCK
  5
32D
330
32B
100
AcDbEntity
  8
0
100
AcDbBlockBegin
  2
block 110
 70
     0
 10
0.0
 20
0.0
 30
0.0
  3
block 110
  1

  0
POLYLINE
  5
32F
330
32B
100
AcDbEntity
  8
interieur
370
     0
100
AcDb2dPolyline
 66
     1
 10
0.0
 20
0.0
 30
0.0
  0
VERTEX
  5
330
330
32F
100
AcDbEntity
  8
interieur
370
     0
100
AcDbVertex
100
AcDb2dVertex
 10
233.2434532799914
 20
-97.36032263548567
 30
0.0
  0
VERTEX
  5
331
330
32F
100
AcDbEntity
  8
interieur
370
     0
100
AcDbVertex
100
AcDb2dVertex
 10
226.0309641118911
 20
-104.5728118035853
 30
0.0
  0
SEQEND
  5
332
330
32F
100
AcDbEntity
  8
interieur
370
     0
  0
ENDBLK
  5
32E
330
32B
100
AcDbEntity
  8
0
100
AcDbBlockEnd
  0
BLOCK
  5
335
330
333
100
AcDbEntity
  8
0
100
AcDbBlockBegin
  2
block 111
 70
     0
 10
0.0
 20
0.0
 30
0.0
  3
block 111
  1

  0
POLYLINE
  5
337
330
333
100
AcDbEntity
  8
interieur
370
     0
100
AcDb2dPolyline
 66
     1
 10
0.0
 20
0.0
 30
0.0
  0
VERTEX
  5
338
330
337
100
AcDbEntity
  8
interieur
370
     0
100
AcDbVertex
100
AcDb2dVertex
 10
239.6074143106916
 20
-103.7242836661856
 30
0.0
  0
VERTEX
  5
339
330
337
100
AcDbEntity
  8
interieur
370
     0
100
AcDbVertex
100
AcDb2dVertex
 10
233.2434532799914
 20
-97.36032263548567
 30
0.0
  0
SEQEND
  5
33A
330
337
100
AcDbEntity
  8
interieur
370
     0
  0
ENDBLK
  5
336
330
333
100
AcDbEntity
  8
0
100
AcDbBlockEnd
  0
BLOCK
  5
33D
330
33B
100
AcDbEntity
  8
0
100
AcDbBlockBegin
  2
block 112
 70
     0
 10
0.0
 20
0.0
 30
0.0
  3
block 112
  1

  0
POLYLINE
  5
33F
330
33B
100
AcDbEntity
  8
interieur
370
     0
100
AcDb2dPolyline
 66
     1
 10
0.0
 20
0.0
 30
0.0
  0
VERTEX
  5
340
330
33F
100
AcDbEntity
  8
interieur
370
     0
100
AcDbVertex
100
AcDb2dVertex
 10
246.6784821225914
 20
-96.65321585428549
 30
0.0
  0
VERTEX
  5
341
330
33F
100
AcDbEntity
  8
interieur
370
     0
100
AcDbVertex
100
AcDb2dVertex
 10
239.6074143106916
 20
-103.7242836661856
 30
0.0
  0
SEQEND
  5
342
330
33F
100
AcDbEntity
  8
interieur
370
     0
  0
ENDBLK
  5
33E
330
33B
100
AcDbEntity
  8
0
100
AcDbBlockEnd
  0
BLOCK
  5
345
330
343
100
AcDbEntity
  8
0
100
AcDbBlockBegin
  2
block 113
 70
     0
 10
0.0
 20
0.0
 30
0.0
  3
block 113
  1

  0
POLYLINE
  5
347
330
343
100
AcDbEntity
  8
interieur
370
     0
100
AcDb2dPolyline
 66
     1
 10
0.0
 20
0.0
 30
0.0
  0
VERTEX
  5
348
330
347
100
AcDbEntity
  8
interieur
370
     0
100
AcDbVertex
100
AcDb2dVertex
 10
250.9211228096911
 20
-100.8958565414853
 30
0.0
  0
VERTEX
  5
349
330
347
100
AcDbEntity
  8
interieur
370
     0
100
AcDbVertex
100
AcDb2dVertex
 10
246.6784821225914
 20
-96.65321585428549
 30
0.0
  0
SEQEND
  5
34A
330
347
100
AcDbEntity
  8
interieur
370
     0
  0
ENDBLK
  5
346
330
343
100
AcDbEntity
  8
0
100
AcDbBlockEnd
  0
BLOCK
  5
34D
330
34B
100
AcDbEntity
  8
0
100
AcDbBlockBegin
  2
block 114
 70
     0
 10
0.0
 20
0.0
 30
0.0
  3
block 114
  1

  0
SPLINE
  5
34F
330
34B
100
AcDbEntity
  8
interieur
370
     0
100
AcDbSpline
210
0.0
220
0.0
230
1.0
 70
    11
 71
     3
 72
    20
 73
    16
 74
     0
 42
0.0000000001
 43
0.0000000001
 12
1.0
 22
0.0
 32
0.0
 13
1.0
 23
0.0
 33
0.0
 40
0.0
 40
0.0
 40
0.0
 40
0.0
 40
1.0
 40
1.0
 40
1.0
 40
2.0
 40
2.0
 40
2.0
 40
3.0
 40
3.0
 40
3.0
 40
4.0
 40
4.0
 40
4.0
 40
5.0
 40
5.0
 40
5.0
 40
5.0
 10
156.6487131178437
 20
-199.3251204825853
 30
0.0
 10
156.6487131178437
 20
-198.4966933578129
 30
0.0
 10
157.3202859931188
 20
-197.8251204825375
 30
0.0
 10
158.1487131178916
 20
-197.8251204825375
 30
0.0
 10
158.977140242664
 20
-197.8251204825375
 30
0.0
 10
159.6487131179391
 20
-198.4966933578129
 30
0.0
 10
159.6487131179391
 20
-199.3251204825853
 30
0.0
 10
159.6487131179391
 20
-200.1535476073578
 30
0.0
 10
158.977140242664
 20
-200.8251204826332
 30
0.0
 10
158.1487131178916
 20
-200.8251204826332
 30
0.0
 10
157.3202859931188
 20
-200.8251204826332
 30
0.0
 10
156.6487131178437
 20
-200.1535476073578
 30
0.0
 10
156.6487131178437
 20
-199.3251204825853
 30
0.0
 10
156.6487131178437
 20
-199.3251204825853
 30
0.0
 10
156.6487131178437
 20
-199.3251204825853
 30
0.0
 10
156.6487131178437
 20
-199.3251204825853
 30
0.0
  0
ENDBLK
  5
34E
330
34B
100
AcDbEntity
  8
0
100
AcDbBlockEnd
  0
BLOCK
  5
352
330
350
100
AcDbEntity
  8
0
100
AcDbBlockBegin
  2
block 115
 70
     0
 10
0.0
 20
0.0
 30
0.0
  3
block 115
  1

  0
SPLINE
  5
354
330
350
100
AcDbEntity
  8
interieur
370
     0
100
AcDbSpline
210
0.0
220
0.0
230
1.0
 70
    11
 71
     3
 72
    20
 73
    16
 74
     0
 42
0.0000000001
 43
0.0000000001
 12
1.0
 22
0.0
 32
0.0
 13
1.0
 23
0.0
 33
0.0
 40
0.0
 40
0.0
 40
0.0
 40
0.0
 40
1.0
 40
1.0
 40
1.0
 40
2.0
 40
2.0
 40
2.0
 40
3.0
 40
3.0
 40
3.0
 40
4.0
 40
4.0
 40
4.0
 40
5.0
 40
5.0
 40
5.0
 40
5.0
 10
238.8145210919409
 20
-97.36032263558545
 30
0.0
 10
238.8145210919409
 20
-96.53189551086662
 30
0.0
 10
239.4860939671726
 20
-95.86032263563482
 30
0.0
 10
240.3145210918912
 20
-95.86032263563482
 30
0.0
 10
241.1429482166103
 20
-95.86032263563482
 30
0.0
 10
241.8145210918422
 20
-96.53189551086662
 30
0.0
 10
241.8145210918422
 20
-97.36032263558545
 30
0.0
 10
241.8145210918422
 20
-98.18874976030429
 30
0.0
 10
241.1429482166103
 20
-98.8603226355361
 30
0.0
 10
240.3145210918912
 20
-98.8603226355361
 30
0.0
 10
239.4860939671726
 20
-98.8603226355361
 30
0.0
 10
238.8145210919409
 20
-98.18874976030429
 30
0.0
 10
238.8145210919409
 20
-97.36032263558545
 30
0.0
 10
238.8145210919409
 20
-97.36032263558545
 30
0.0
 10
238.8145210919409
 20
-97.36032263558545
 30
0.0
 10
238.8145210919409
 20
-97.36032263558545
 30
0.0
  0
ENDBLK
  5
353
330
350
100
AcDbEntity
  8
0
100
AcDbBlockEnd
  0
BLOCK
  5
357
330
355
100
AcDbEntity
  8
0
100
AcDbBlockBegin
  2
block 116
 70
     0
 10
0.0
 20
0.0
 30
0.0
  3
block 116
  1

  0
POLYLINE
  5
359
330
355
100
AcDbEntity
  8
interieur
370
     0
100
AcDb2dPolyline
 66
     1
 10
0.0
 20
0.0
 30
0.0
  0
VERTEX
  5
35A
330
359
100
AcDbEntity
  8
interieur
370
     0
100
AcDbVertex
100
AcDb2dVertex
 10
226.0309641118911
 20
-110.1438796154822
 30
0.0
  0
VERTEX
  5
6D7
330
359
100
AcDbEntity
  8
0
100
AcDbVertex
100
AcDb2dVertex
 10
226.0309641118911
 20
-110.1438796154822
 30
0.0
  0
SEQEND
  5
35B
330
359
100
AcDbEntity
  8
interieur
370
     0
  0
ENDBLK
  5
358
330
355
100
AcDbEntity
  8
0
100
AcDbBlockEnd
  0
BLOCK
  5
35E
330
35C
100
AcDbEntity
  8
0
100
AcDbBlockBegin
  2
block 117
 70
     0
 10
0.0
 20
0.0
 30
0.0
  3
block 117
  1

  0
SPLINE
  5
360
330
35C
100
AcDbEntity
  8
interieur
370
     0
100
AcDbSpline
210
0.0
220
0.0
230
1.0
 70
     8
 71
     3
 72
    14
 73
    10
 74
     0
 42
0.0000000001
 43
0.0000000001
 12
1.0
 22
0.0
 32
0.0
 13
1.0
 23
0.0
 33
0.0
 40
0.0
 40
0.0
 40
0.0
 40
0.0
 40
1.0
 40
1.0
 40
1.0
 40
2.0
 40
2.0
 40
2.0
 40
3.0
 40
3.0
 40
3.0
 40
3.0
 10
251.7140160284618
 20
-189.4256255460857
 30
0.0
 10
251.7140160284618
 20
-190.2540526708703
 30
0.0
 10
251.0424431531761
 20
-190.9256255461553
 30
0.0
 10
250.2140160283915
 20
-190.9256255461553
 30
0.0
 10
249.3855889036062
 20
-190.9256255461553
 30
0.0
 10
248.7140160283212
 20
-190.2540526708703
 30
0.0
 10
248.7140160283212
 20
-189.4256255460857
 30
0.0
 10
248.7140160283212
 20
-189.4256255460857
 30
0.0
 10
248.7140160283212
 20
-189.4256255460857
 30
0.0
 10
248.7140160283212
 20
-189.4256255460857
 30
0.0
  0
ENDBLK
  5
35F
330
35C
100
AcDbEntity
  8
0
100
AcDbBlockEnd
  0
BLOCK
  5
363
330
361
100
AcDbEntity
  8
0
100
AcDbBlockBegin
  2
block 118
 70
     0
 10
0.0
 20
0.0
 30
0.0
  3
block 118
  1

  0
POLYLINE
  5
365
330
361
100
AcDbEntity
  8
interieur
370
     0
100
AcDb2dPolyline
 66
     1
 10
0.0
 20
0.0
 30
0.0
  0
VERTEX
  5
366
330
365
100
AcDbEntity
  8
interieur
370
     0
100
AcDbVertex
100
AcDb2dVertex
 10
199.2316171094914
 20
-111.3427215590855
 30
0.0
  0
VERTEX
  5
6D8
330
365
100
AcDbEntity
  8
0
100
AcDbVertex
100
AcDb2dVertex
 10
199.2316171094914
 20
-111.3427215590855
 30
0.0
  0
SEQEND
  5
367
330
365
100
AcDbEntity
  8
interieur
370
     0
  0
ENDBLK
  5
364
330
361
100
AcDbEntity
  8
0
100
AcDbBlockEnd
  0
BLOCK
  5
36A
330
368
100
AcDbEntity
  8
0
100
AcDbBlockBegin
  2
block 119
 70
     0
 10
0.0
 20
0.0
 30
0.0
  3
block 119
  1

  0
SPLINE
  5
36C
330
368
100
AcDbEntity
  8
interieur
370
     0
100
AcDbSpline
210
0.0
220
0.0
230
1.0
 70
    11
 71
     3
 72
    20
 73
    16
 74
     0
 42
0.0000000001
 43
0.0000000001
 12
1.0
 22
0.0
 32
0.0
 13
1.0
 23
0.0
 33
0.0
 40
0.0
 40
0.0
 40
0.0
 40
0.0
 40
1.0
 40
1.0
 40
1.0
 40
2.0
 40
2.0
 40
2.0
 40
3.0
 40
3.0
 40
3.0
 40
4.0
 40
4.0
 40
4.0
 40
5.0
 40
5.0
 40
5.0
 40
5.0
 10
232.2316171094913
 20
-148.3427215590859
 30
0.0
 10
232.2316171094913
 20
-147.238152059424
 30
0.0
 10
233.1270476098301
 20
-146.3427215590855
 30
0.0
 10
234.2316171094914
 20
-146.3427215590855
 30
0.0
 10
235.3361866091533
 20
-146.3427215590855
 30
0.0
 10
236.2316171094914
 20
-147.238152059424
 30
0.0
 10
236.2316171094914
 20
-148.3427215590859
 30
0.0
 10
236.2316171094914
 20
-149.4472910587468
 30
0.0
 10
235.3361866091533
 20
-150.3427215590856
 30
0.0
 10
234.2316171094914
 20
-150.3427215590856
 30
0.0
 10
233.1270476098301
 20
-150.3427215590856
 30
0.0
 10
232.2316171094913
 20
-149.4472910587468
 30
0.0
 10
232.2316171094913
 20
-148.3427215590859
 30
0.0
 10
232.2316171094913
 20
-148.3427215590859
 30
0.0
 10
232.2316171094913
 20
-148.3427215590859
 30
0.0
 10
232.2316171094913
 20
-148.3427215590859
 30
0.0
  0
ENDBLK
  5
36B
330
368
100
AcDbEntity
  8
0
100
AcDbBlockEnd
  0
BLOCK
  5
36F
330
36D
100
AcDbEntity
  8
0
100
AcDbBlockBegin
  2
block 120
 70
     0
 10
0.0
 20
0.0
 30
0.0
  3
block 120
  1

  0
SPLINE
  5
371
330
36D
100
AcDbEntity
  8
interieur
370
     0
100
AcDbSpline
210
0.0
220
0.0
230
1.0
 70
    11
 71
     3
 72
    20
 73
    16
 74
     0
 42
0.0000000001
 43
0.0000000001
 12
1.0
 22
0.0
 32
0.0
 13
1.0
 23
0.0
 33
0.0
 40
0.0
 40
0.0
 40
0.0
 40
0.0
 40
1.0
 40
1.0
 40
1.0
 40
2.0
 40
2.0
 40
2.0
 40
3.0
 40
3.0
 40
3.0
 40
4.0
 40
4.0
 40
4.0
 40
5.0
 40
5.0
 40
5.0
 40
5.0
 10
162.2316171094914
 20
-148.3427215590859
 30
0.0
 10
162.2316171094914
 20
-147.238152059424
 30
0.0
 10
163.1270476098299
 20
-146.3427215590855
 30
0.0
 10
164.2316171094915
 20
-146.3427215590855
 30
0.0
 10
165.336186609153
 20
-146.3427215590855
 30
0.0
 10
166.2316171094915
 20
-147.238152059424
 30
0.0
 10
166.2316171094915
 20
-148.3427215590859
 30
0.0
 10
166.2316171094915
 20
-149.4472910587468
 30
0.0
 10
165.336186609153
 20
-150.3427215590856
 30
0.0
 10
164.2316171094915
 20
-150.3427215590856
 30
0.0
 10
163.1270476098299
 20
-150.3427215590856
 30
0.0
 10
162.2316171094914
 20
-149.4472910587468
 30
0.0
 10
162.2316171094914
 20
-148.3427215590859
 30
0.0
 10
162.2316171094914
 20
-148.3427215590859
 30
0.0
 10
162.2316171094914
 20
-148.3427215590859
 30
0.0
 10
162.2316171094914
 20
-148.3427215590859
 30
0.0
  0
ENDBLK
  5
370
330
36D
100
AcDbEntity
  8
0
100
AcDbBlockEnd
  0
BLOCK
  5
374
330
372
100
AcDbEntity
  8
0
100
AcDbBlockBegin
  2
block 121
 70
     0
 10
0.0
 20
0.0
 30
0.0
  3
block 121
  1

  0
SPLINE
  5
376
330
372
100
AcDbEntity
  8
interieur
370
     0
100
AcDbSpline
210
0.0
220
0.0
230
1.0
 70
    11
 71
     3
 72
    20
 73
    16
 74
     0
 42
0.0000000001
 43
0.0000000001
 12
1.0
 22
0.0
 32
0.0
 13
1.0
 23
0.0
 33
0.0
 40
0.0
 40
0.0
 40
0.0
 40
0.0
 40
1.0
 40
1.0
 40
1.0
 40
2.0
 40
2.0
 40
2.0
 40
3.0
 40
3.0
 40
3.0
 40
4.0
 40
4.0
 40
4.0
 40
5.0
 40
5.0
 40
5.0
 40
5.0
 10
224.5309641120268
 20
-185.0415635025853
 30
0.0
 10
224.5309641120268
 20
-184.213136377859
 30
0.0
 10
225.202536987265
 20
-183.5415635026208
 30
0.0
 10
226.0309641119912
 20
-183.5415635026208
 30
0.0
 10
226.8593912367181
 20
-183.5415635026208
 30
0.0
 10
227.5309641119556
 20
-184.213136377859
 30
0.0
 10
227.5309641119556
 20
-185.0415635025853
 30
0.0
 10
227.5309641119556
 20
-185.8699906273121
 30
0.0
 10
226.8593912367181
 20
-186.5415635025497
 30
0.0
 10
226.0309641119912
 20
-186.5415635025497
 30
0.0
 10
225.202536987265
 20
-186.5415635025497
 30
0.0
 10
224.5309641120268
 20
-185.8699906273121
 30
0.0
 10
224.5309641120268
 20
-185.0415635025853
 30
0.0
 10
224.5309641120268
 20
-185.0415635025853
 30
0.0
 10
224.5309641120268
 20
-185.0415635025853
 30
0.0
 10
224.5309641120268
 20
-185.0415635025853
 30
0.0
  0
ENDBLK
  5
375
330
372
100
AcDbEntity
  8
0
100
AcDbBlockEnd
  0
BLOCK
  5
37D
330
37B
100
AcDbEntity
  8
0
100
AcDbBlockBegin
  2
block 122
 70
     0
 10
0.0
 20
0.0
 30
0.0
  3
block 122
  1

  0
POLYLINE
  5
37F
330
37B
100
AcDbEntity
  8
interieur
370
     0
100
AcDb2dPolyline
 66
     1
 10
0.0
 20
0.0
 30
0.0
  0
VERTEX
  5
380
330
37F
100
AcDbEntity
  8
interieur
370
     0
100
AcDbVertex
100
AcDb2dVertex
 10
225.3238573306916
 20
-178.6776024719858
 30
0.0
  0
VERTEX
  5
381
330
37F
100
AcDbEntity
  8
interieur
370
     0
100
AcDbVertex
100
AcDb2dVertex
 10
232.3949251425913
 20
-185.7486702838855
 30
0.0
  0
SEQEND
  5
382
330
37F
100
AcDbEntity
  8
interieur
370
     0
  0
ENDBLK
  5
37E
330
37B
100
AcDbEntity
  8
0
100
AcDbBlockEnd
  0
BLOCK
  5
385
330
383
100
AcDbEntity
  8
0
100
AcDbBlockBegin
  2
block 123
 70
     0
 10
0.0
 20
0.0
 30
0.0
  3
block 123
  1

  0
POLYLINE
  5
387
330
383
100
AcDbEntity
  8
interieur
370
     0
100
AcDb2dPolyline
 66
     1
 10
0.0
 20
0.0
 30
0.0
  0
VERTEX
  5
388
330
387
100
AcDbEntity
  8
interieur
370
     0
100
AcDbVertex
100
AcDb2dVertex
 10
229.5664980178913
 20
-174.4349617848854
 30
0.0
  0
VERTEX
  5
389
330
387
100
AcDbEntity
  8
interieur
370
     0
100
AcDbVertex
100
AcDb2dVertex
 10
225.3238573306916
 20
-178.6776024719858
 30
0.0
  0
SEQEND
  5
38A
330
387
100
AcDbEntity
  8
interieur
370
     0
  0
ENDBLK
  5
386
330
383
100
AcDbEntity
  8
0
100
AcDbBlockEnd
  0
BLOCK
  5
38D
330
38B
100
AcDbEntity
  8
0
100
AcDbBlockBegin
  2
block 124
 70
     0
 10
0.0
 20
0.0
 30
0.0
  3
block 124
  1

  0
POLYLINE
  5
38F
330
38B
100
AcDbEntity
  8
interieur
370
     0
100
AcDb2dPolyline
 66
     1
 10
0.0
 20
0.0
 30
0.0
  0
VERTEX
  5
390
330
38F
100
AcDbEntity
  8
interieur
370
     0
100
AcDbVertex
100
AcDb2dVertex
 10
236.6375658296917
 20
-181.5060295966857
 30
0.0
  0
VERTEX
  5
391
330
38F
100
AcDbEntity
  8
interieur
370
     0
100
AcDbVertex
100
AcDb2dVertex
 10
229.5664980178913
 20
-174.4349617848854
 30
0.0
  0
SEQEND
  5
392
330
38F
100
AcDbEntity
  8
interieur
370
     0
  0
ENDBLK
  5
38E
330
38B
100
AcDbEntity
  8
0
100
AcDbBlockEnd
  0
BLOCK
  5
395
330
393
100
AcDbEntity
  8
0
100
AcDbBlockBegin
  2
block 125
 70
     0
 10
0.0
 20
0.0
 30
0.0
  3
block 125
  1

  0
POLYLINE
  5
397
330
393
100
AcDbEntity
  8
interieur
370
     0
100
AcDb2dPolyline
 66
     1
 10
0.0
 20
0.0
 30
0.0
  0
VERTEX
  5
398
330
397
100
AcDbEntity
  8
interieur
370
     0
100
AcDbVertex
100
AcDb2dVertex
 10
243.0015268603913
 20
-175.1420685660856
 30
0.0
  0
VERTEX
  5
399
330
397
100
AcDbEntity
  8
interieur
370
     0
100
AcDbVertex
100
AcDb2dVertex
 10
236.6375658296917
 20
-181.5060295966857
 30
0.0
  0
SEQEND
  5
39A
330
397
100
AcDbEntity
  8
interieur
370
     0
  0
ENDBLK
  5
396
330
393
100
AcDbEntity
  8
0
100
AcDbBlockEnd
  0
BLOCK
  5
39D
330
39B
100
AcDbEntity
  8
0
100
AcDbBlockBegin
  2
block 126
 70
     0
 10
0.0
 20
0.0
 30
0.0
  3
block 126
  1

  0
POLYLINE
  5
39F
330
39B
100
AcDbEntity
  8
interieur
370
     0
100
AcDb2dPolyline
 66
     1
 10
0.0
 20
0.0
 30
0.0
  0
VERTEX
  5
3A0
330
39F
100
AcDbEntity
  8
interieur
370
     0
100
AcDbVertex
100
AcDb2dVertex
 10
250.2140160284916
 20
-182.3545577341852
 30
0.0
  0
VERTEX
  5
3A1
330
39F
100
AcDbEntity
  8
interieur
370
     0
100
AcDbVertex
100
AcDb2dVertex
 10
243.0015268603913
 20
-175.1420685660856
 30
0.0
  0
SEQEND
  5
3A2
330
39F
100
AcDbEntity
  8
interieur
370
     0
  0
ENDBLK
  5
39E
330
39B
100
AcDbEntity
  8
0
100
AcDbBlockEnd
  0
BLOCK
  5
3A9
330
3A7
100
AcDbEntity
  8
0
100
AcDbBlockBegin
  2
block 127
 70
     0
 10
0.0
 20
0.0
 30
0.0
  3
block 127
  1

  0
SPLINE
  5
3AB
330
3A7
100
AcDbEntity
  8
interieur
370
     0
100
AcDbSpline
210
0.0
220
0.0
230
1.0
 70
    11
 71
     3
 72
    20
 73
    16
 74
     0
 42
0.0000000001
 43
0.0000000001
 12
1.0
 22
0.0
 32
0.0
 13
1.0
 23
0.0
 33
0.0
 40
0.0
 40
0.0
 40
0.0
 40
0.0
 40
1.0
 40
1.0
 40
1.0
 40
2.0
 40
2.0
 40
2.0
 40
3.0
 40
3.0
 40
3.0
 40
4.0
 40
4.0
 40
4.0
 40
5.0
 40
5.0
 40
5.0
 40
5.0
 10
234.430459048477
 20
-121.5433745520855
 30
0.0
 10
234.430459048477
 20
-120.7149474273317
 30
0.0
 10
235.1020319237377
 20
-120.0433745520714
 30
0.0
 10
235.9304590484915
 20
-120.0433745520714
 30
0.0
 10
236.7588861732453
 20
-120.0433745520714
 30
0.0
 10
237.4304590485054
 20
-120.7149474273317
 30
0.0
 10
237.4304590485054
 20
-121.5433745520855
 30
0.0
 10
237.4304590485054
 20
-122.3718016768393
 30
0.0
 10
236.7588861732453
 20
-123.0433745521
 30
0.0
 10
235.9304590484915
 20
-123.0433745521
 30
0.0
 10
235.1020319237377
 20
-123.0433745521
 30
0.0
 10
234.430459048477
 20
-122.3718016768393
 30
0.0
 10
234.430459048477
 20
-121.5433745520855
 30
0.0
 10
234.430459048477
 20
-121.5433745520855
 30
0.0
 10
234.430459048477
 20
-121.5433745520855
 30
0.0
 10
234.430459048477
 20
-121.5433745520855
 30
0.0
  0
ENDBLK
  5
3AA
330
3A7
100
AcDbEntity
  8
0
100
AcDbBlockEnd
  0
BLOCK
  5
3AE
330
3AC
100
AcDbEntity
  8
0
100
AcDbBlockBegin
  2
block 128
 70
     0
 10
0.0
 20
0.0
 30
0.0
  3
block 128
  1

  0
SPLINE
  5
3B0
330
3AC
100
AcDbEntity
  8
interieur
370
     0
100
AcDbSpline
210
0.0
220
0.0
230
1.0
 70
    11
 71
     3
 72
    20
 73
    16
 74
     0
 42
0.0000000001
 43
0.0000000001
 12
1.0
 22
0.0
 32
0.0
 13
1.0
 23
0.0
 33
0.0
 40
0.0
 40
0.0
 40
0.0
 40
0.0
 40
1.0
 40
1.0
 40
1.0
 40
2.0
 40
2.0
 40
2.0
 40
3.0
 40
3.0
 40
3.0
 40
4.0
 40
4.0
 40
4.0
 40
5.0
 40
5.0
 40
5.0
 40
5.0
 10
161.0327751614074
 20
-175.1420685660856
 30
0.0
 10
161.0327751614074
 20
-174.3136414413478
 30
0.0
 10
161.7043480366539
 20
-173.6420685661012
 30
0.0
 10
162.5327751613914
 20
-173.6420685661012
 30
0.0
 10
163.3612022861288
 20
-173.6420685661012
 30
0.0
 10
164.0327751613754
 20
-174.3136414413478
 30
0.0
 10
164.0327751613754
 20
-175.1420685660856
 30
0.0
 10
164.0327751613754
 20
-175.9704956908227
 30
0.0
 10
163.3612022861288
 20
-176.6420685660693
 30
0.0
 10
162.5327751613914
 20
-176.6420685660693
 30
0.0
 10
161.7043480366539
 20
-176.6420685660693
 30
0.0
 10
161.0327751614074
 20
-175.9704956908227
 30
0.0
 10
161.0327751614074
 20
-175.1420685660856
 30
0.0
 10
161.0327751614074
 20
-175.1420685660856
 30
0.0
 10
161.0327751614074
 20
-175.1420685660856
 30
0.0
 10
161.0327751614074
 20
-175.1420685660856
 30
0.0
  0
ENDBLK
  5
3AF
330
3AC
100
AcDbEntity
  8
0
100
AcDbBlockEnd
  0
BLOCK
  5
3B8
330
3B6
100
AcDbEntity
  8
0
100
AcDbBlockBegin
  2
block 129
 70
     0
 10
0.0
 20
0.0
 30
0.0
  3
block 129
  1

  0
POLYLINE
  5
3BA
330
3B6
100
AcDbEntity
  8
interieur
370
     0
100
AcDb2dPolyline
 66
     1
 10
0.0
 20
0.0
 30
0.0
  0
VERTEX
  5
3BB
330
3BA
100
AcDbEntity
  8
interieur
370
     0
100
AcDbVertex
100
AcDb2dVertex
 10
155.4617073494916
 20
-175.1420685660856
 30
0.0
  0
VERTEX
  5
3BC
330
3BA
100
AcDbEntity
  8
interieur
370
     0
100
AcDbVertex
100
AcDb2dVertex
 10
148.2492181813913
 20
-182.3545577341852
 30
0.0
  0
SEQEND
  5
3BD
330
3BA
100
AcDbEntity
  8
interieur
370
     0
  0
ENDBLK
  5
3B9
330
3B6
100
AcDbEntity
  8
0
100
AcDbBlockEnd
  0
BLOCK
  5
3C0
330
3BE
100
AcDbEntity
  8
0
100
AcDbBlockBegin
  2
block 130
 70
     0
 10
0.0
 20
0.0
 30
0.0
  3
block 130
  1

  0
POLYLINE
  5
3C2
330
3BE
100
AcDbEntity
  8
interieur
370
     0
100
AcDb2dPolyline
 66
     1
 10
0.0
 20
0.0
 30
0.0
  0
VERTEX
  5
3C3
330
3C2
100
AcDbEntity
  8
interieur
370
     0
100
AcDbVertex
100
AcDb2dVertex
 10
161.8256683801915
 20
-181.5060295966857
 30
0.0
  0
VERTEX
  5
3C4
330
3C2
100
AcDbEntity
  8
interieur
370
     0
100
AcDbVertex
100
AcDb2dVertex
 10
155.4617073494916
 20
-175.1420685660856
 30
0.0
  0
SEQEND
  5
3C5
330
3C2
100
AcDbEntity
  8
interieur
370
     0
  0
ENDBLK
  5
3C1
330
3BE
100
AcDbEntity
  8
0
100
AcDbBlockEnd
  0
BLOCK
  5
3C8
330
3C6
100
AcDbEntity
  8
0
100
AcDbBlockBegin
  2
block 131
 70
     0
 10
0.0
 20
0.0
 30
0.0
  3
block 131
  1

  0
POLYLINE
  5
3CA
330
3C6
100
AcDbEntity
  8
interieur
370
     0
100
AcDb2dPolyline
 66
     1
 10
0.0
 20
0.0
 30
0.0
  0
VERTEX
  5
3CB
330
3CA
100
AcDbEntity
  8
interieur
370
     0
100
AcDbVertex
100
AcDb2dVertex
 10
168.8967361920913
 20
-174.4349617848854
 30
0.0
  0
VERTEX
  5
3CC
330
3CA
100
AcDbEntity
  8
interieur
370
     0
100
AcDbVertex
100
AcDb2dVertex
 10
161.8256683801915
 20
-181.5060295966857
 30
0.0
  0
SEQEND
  5
3CD
330
3CA
100
AcDbEntity
  8
interieur
370
     0
  0
ENDBLK
  5
3C9
330
3C6
100
AcDbEntity
  8
0
100
AcDbBlockEnd
  0
BLOCK
  5
3D0
330
3CE
100
AcDbEntity
  8
0
100
AcDbBlockBegin
  2
block 132
 70
     0
 10
0.0
 20
0.0
 30
0.0
  3
block 132
  1

  0
POLYLINE
  5
3D2
330
3CE
100
AcDbEntity
  8
interieur
370
     0
100
AcDb2dPolyline
 66
     1
 10
0.0
 20
0.0
 30
0.0
  0
VERTEX
  5
3D3
330
3D2
100
AcDbEntity
  8
interieur
370
     0
100
AcDbVertex
100
AcDb2dVertex
 10
173.1393768791913
 20
-178.6776024719858
 30
0.0
  0
VERTEX
  5
3D4
330
3D2
100
AcDbEntity
  8
interieur
370
     0
100
AcDbVertex
100
AcDb2dVertex
 10
168.8967361920913
 20
-174.4349617848854
 30
0.0
  0
SEQEND
  5
3D5
330
3D2
100
AcDbEntity
  8
interieur
370
     0
  0
ENDBLK
  5
3D1
330
3CE
100
AcDbEntity
  8
0
100
AcDbBlockEnd
  0
BLOCK
  5
3D8
330
3D6
100
AcDbEntity
  8
0
100
AcDbBlockBegin
  2
block 133
 70
     0
 10
0.0
 20
0.0
 30
0.0
  3
block 133
  1

  0
POLYLINE
  5
3DA
330
3D6
100
AcDbEntity
  8
interieur
370
     0
100
AcDb2dPolyline
 66
     1
 10
0.0
 20
0.0
 30
0.0
  0
VERTEX
  5
3DB
330
3DA
100
AcDbEntity
  8
interieur
370
     0
100
AcDbVertex
100
AcDb2dVertex
 10
166.0683090672915
 20
-185.7486702838855
 30
0.0
  0
VERTEX
  5
3DC
330
3DA
100
AcDbEntity
  8
interieur
370
     0
100
AcDbVertex
100
AcDb2dVertex
 10
173.1393768791913
 20
-178.6776024719858
 30
0.0
  0
SEQEND
  5
3DD
330
3DA
100
AcDbEntity
  8
interieur
370
     0
  0
ENDBLK
  5
3D9
330
3D6
100
AcDbEntity
  8
0
100
AcDbBlockEnd
  0
BLOCK
  5
3E8
330
3E6
100
AcDbEntity
  8
0
100
AcDbBlockBegin
  2
block 134
 70
     0
 10
0.0
 20
0.0
 30
0.0
  3
block 134
  1

  0
POLYLINE
  5
3EA
330
3E6
100
AcDbEntity
  8
interieur
370
     0
100
AcDb2dPolyline
 66
     1
 10
0.0
 20
0.0
 30
0.0
  0
VERTEX
  5
3EB
330
3EA
100
AcDbEntity
  8
interieur
370
     0
100
AcDbVertex
100
AcDb2dVertex
 10
243.0015268603913
 20
-121.5433745520855
 30
0.0
  0
VERTEX
  5
3EC
330
3EA
100
AcDbEntity
  8
interieur
370
     0
100
AcDbVertex
100
AcDb2dVertex
 10
250.2140160284916
 20
-114.3308853839855
 30
0.0
  0
SEQEND
  5
3ED
330
3EA
100
AcDbEntity
  8
interieur
370
     0
  0
ENDBLK
  5
3E9
330
3E6
100
AcDbEntity
  8
0
100
AcDbBlockEnd
  0
BLOCK
  5
3F0
330
3EE
100
AcDbEntity
  8
0
100
AcDbBlockBegin
  2
block 135
 70
     0
 10
0.0
 20
0.0
 30
0.0
  3
block 135
  1

  0
POLYLINE
  5
3F2
330
3EE
100
AcDbEntity
  8
interieur
370
     0
100
AcDb2dPolyline
 66
     1
 10
0.0
 20
0.0
 30
0.0
  0
VERTEX
  5
3F3
330
3F2
100
AcDbEntity
  8
interieur
370
     0
100
AcDbVertex
100
AcDb2dVertex
 10
236.6375658296917
 20
-115.1794135213856
 30
0.0
  0
VERTEX
  5
3F4
330
3F2
100
AcDbEntity
  8
interieur
370
     0
100
AcDbVertex
100
AcDb2dVertex
 10
243.0015268603913
 20
-121.5433745520855
 30
0.0
  0
SEQEND
  5
3F5
330
3F2
100
AcDbEntity
  8
interieur
370
     0
  0
ENDBLK
  5
3F1
330
3EE
100
AcDbEntity
  8
0
100
AcDbBlockEnd
  0
BLOCK
  5
3F8
330
3F6
100
AcDbEntity
  8
0
100
AcDbBlockBegin
  2
block 136
 70
     0
 10
0.0
 20
0.0
 30
0.0
  3
block 136
  1

  0
POLYLINE
  5
3FA
330
3F6
100
AcDbEntity
  8
interieur
370
     0
100
AcDb2dPolyline
 66
     1
 10
0.0
 20
0.0
 30
0.0
  0
VERTEX
  5
3FB
330
3FA
100
AcDbEntity
  8
interieur
370
     0
100
AcDbVertex
100
AcDb2dVertex
 10
229.5664980177912
 20
-122.2504813332854
 30
0.0
  0
VERTEX
  5
3FC
330
3FA
100
AcDbEntity
  8
interieur
370
     0
100
AcDbVertex
100
AcDb2dVertex
 10
236.6375658296917
 20
-115.1794135213856
 30
0.0
  0
SEQEND
  5
3FD
330
3FA
100
AcDbEntity
  8
interieur
370
     0
  0
ENDBLK
  5
3F9
330
3F6
100
AcDbEntity
  8
0
100
AcDbBlockEnd
  0
BLOCK
  5
400
330
3FE
100
AcDbEntity
  8
0
100
AcDbBlockBegin
  2
block 137
 70
     0
 10
0.0
 20
0.0
 30
0.0
  3
block 137
  1

  0
POLYLINE
  5
402
330
3FE
100
AcDbEntity
  8
interieur
370
     0
100
AcDb2dPolyline
 66
     1
 10
0.0
 20
0.0
 30
0.0
  0
VERTEX
  5
403
330
402
100
AcDbEntity
  8
interieur
370
     0
100
AcDbVertex
100
AcDb2dVertex
 10
225.3238573306916
 20
-118.0078406461854
 30
0.0
  0
VERTEX
  5
404
330
402
100
AcDbEntity
  8
interieur
370
     0
100
AcDbVertex
100
AcDb2dVertex
 10
229.5664980177912
 20
-122.2504813332854
 30
0.0
  0
SEQEND
  5
405
330
402
100
AcDbEntity
  8
interieur
370
     0
  0
ENDBLK
  5
401
330
3FE
100
AcDbEntity
  8
0
100
AcDbBlockEnd
  0
BLOCK
  5
40C
330
40A
100
AcDbEntity
  8
0
100
AcDbBlockBegin
  2
block 138
 70
     0
 10
0.0
 20
0.0
 30
0.0
  3
block 138
  1

  0
SPLINE
  5
40E
330
40A
100
AcDbEntity
  8
interieur
370
     0
100
AcDbSpline
210
0.0
220
0.0
230
1.0
 70
    11
 71
     3
 72
    20
 73
    16
 74
     0
 42
0.0000000001
 43
0.0000000001
 12
1.0
 22
0.0
 32
0.0
 13
1.0
 23
0.0
 33
0.0
 40
0.0
 40
0.0
 40
0.0
 40
0.0
 40
1.0
 40
1.0
 40
1.0
 40
2.0
 40
2.0
 40
2.0
 40
3.0
 40
3.0
 40
3.0
 40
4.0
 40
4.0
 40
4.0
 40
5.0
 40
5.0
 40
5.0
 40
5.0
 10
170.9322700979962
 20
-185.0415635026854
 30
0.0
 10
170.9322700979962
 20
-184.2131363779418
 30
0.0
 10
171.6038429732479
 20
-183.5415635026901
 30
0.0
 10
172.4322700979914
 20
-183.5415635026901
 30
0.0
 10
173.260697222735
 20
-183.5415635026901
 30
0.0
 10
173.9322700979864
 20
-184.2131363779418
 30
0.0
 10
173.9322700979864
 20
-185.0415635026854
 30
0.0
 10
173.9322700979864
 20
-185.8699906274289
 30
0.0
 10
173.260697222735
 20
-186.5415635026806
 30
0.0
 10
172.4322700979914
 20
-186.5415635026806
 30
0.0
 10
171.6038429732479
 20
-186.5415635026806
 30
0.0
 10
170.9322700979962
 20
-185.8699906274289
 30
0.0
 10
170.9322700979962
 20
-185.0415635026854
 30
0.0
 10
170.9322700979962
 20
-185.0415635026854
 30
0.0
 10
170.9322700979962
 20
-185.0415635026854
 30
0.0
 10
170.9322700979962
 20
-185.0415635026854
 30
0.0
  0
ENDBLK
  5
40D
330
40A
100
AcDbEntity
  8
0
100
AcDbBlockEnd
  0
BLOCK
  5
413
330
411
100
AcDbEntity
  8
0
100
AcDbBlockBegin
  2
block 139
 70
     0
 10
0.0
 20
0.0
 30
0.0
  3
block 139
  1

  0
SPLINE
  5
415
330
411
100
AcDbEntity
  8
interieur
370
     0
100
AcDbSpline
210
0.0
220
0.0
230
1.0
 70
    11
 71
     3
 72
    20
 73
    16
 74
     0
 42
0.0000000001
 43
0.0000000001
 12
1.0
 22
0.0
 32
0.0
 13
1.0
 23
0.0
 33
0.0
 40
0.0
 40
0.0
 40
0.0
 40
0.0
 40
1.0
 40
1.0
 40
1.0
 40
2.0
 40
2.0
 40
2.0
 40
3.0
 40
3.0
 40
3.0
 40
4.0
 40
4.0
 40
4.0
 40
5.0
 40
5.0
 40
5.0
 40
5.0
 10
234.4304590485065
 20
-175.1420685659855
 30
0.0
 10
234.4304590485065
 20
-174.3136414412477
 30
0.0
 10
235.1020319237537
 20
-173.6420685660005
 30
0.0
 10
235.9304590484915
 20
-173.6420685660005
 30
0.0
 10
236.7588861732293
 20
-173.6420685660005
 30
0.0
 10
237.4304590484765
 20
-174.3136414412477
 30
0.0
 10
237.4304590484765
 20
-175.1420685659855
 30
0.0
 10
237.4304590484765
 20
-175.9704956907233
 30
0.0
 10
236.7588861732293
 20
-176.6420685659704
 30
0.0
 10
235.9304590484915
 20
-176.6420685659704
 30
0.0
 10
235.1020319237537
 20
-176.6420685659704
 30
0.0
 10
234.4304590485065
 20
-175.9704956907233
 30
0.0
 10
234.4304590485065
 20
-175.1420685659855
 30
0.0
 10
234.4304590485065
 20
-175.1420685659855
 30
0.0
 10
234.4304590485065
 20
-175.1420685659855
 30
0.0
 10
234.4304590485065
 20
-175.1420685659855
 30
0.0
  0
ENDBLK
  5
414
330
411
100
AcDbEntity
  8
0
100
AcDbBlockEnd
  0
BLOCK
  5
418
330
416
100
AcDbEntity
  8
0
100
AcDbBlockBegin
  2
block 140
 70
     0
 10
0.0
 20
0.0
 30
0.0
  3
block 140
  1

  0
SPLINE
  5
41A
330
416
100
AcDbEntity
  8
interieur
370
     0
100
AcDbSpline
210
0.0
220
0.0
230
1.0
 70
    11
 71
     3
 72
    20
 73
    16
 74
     0
 42
0.0000000001
 43
0.0000000001
 12
1.0
 22
0.0
 32
0.0
 13
1.0
 23
0.0
 33
0.0
 40
0.0
 40
0.0
 40
0.0
 40
0.0
 40
1.0
 40
1.0
 40
1.0
 40
2.0
 40
2.0
 40
2.0
 40
3.0
 40
3.0
 40
3.0
 40
4.0
 40
4.0
 40
4.0
 40
5.0
 40
5.0
 40
5.0
 40
5.0
 10
197.2316171094913
 20
-183.3427215590855
 30
0.0
 10
197.2316171094913
 20
-182.2381520594236
 30
0.0
 10
198.1270476098298
 20
-181.3427215590854
 30
0.0
 10
199.2316171094914
 20
-181.3427215590854
 30
0.0
 10
200.3361866091533
 20
-181.3427215590854
 30
0.0
 10
201.2316171094915
 20
-182.2381520594236
 30
0.0
 10
201.2316171094915
 20
-183.3427215590855
 30
0.0
 10
201.2316171094915
 20
-184.4472910587468
 30
0.0
 10
200.3361866091533
 20
-185.3427215590856
 30
0.0
 10
199.2316171094914
 20
-185.3427215590856
 30
0.0
 10
198.1270476098298
 20
-185.3427215590856
 30
0.0
 10
197.2316171094913
 20
-184.4472910587468
 30
0.0
 10
197.2316171094913
 20
-183.3427215590855
 30
0.0
 10
197.2316171094913
 20
-183.3427215590855
 30
0.0
 10
197.2316171094913
 20
-183.3427215590855
 30
0.0
 10
197.2316171094913
 20
-183.3427215590855
 30
0.0
  0
ENDBLK
  5
419
330
416
100
AcDbEntity
  8
0
100
AcDbBlockEnd
  0
BLOCK
  5
41E
330
41C
100
AcDbEntity
  8
0
100
AcDbBlockBegin
  2
block 141
 70
     0
 10
0.0
 20
0.0
 30
0.0
  3
block 141
  1

  0
SPLINE
  5
420
330
41C
100
AcDbEntity
  8
interieur
370
     0
100
AcDbSpline
210
0.0
220
0.0
230
1.0
 70
    11
 71
     3
 72
    20
 73
    16
 74
     0
 42
0.0000000001
 43
0.0000000001
 12
1.0
 22
0.0
 32
0.0
 13
1.0
 23
0.0
 33
0.0
 40
0.0
 40
0.0
 40
0.0
 40
0.0
 40
1.0
 40
1.0
 40
1.0
 40
2.0
 40
2.0
 40
2.0
 40
3.0
 40
3.0
 40
3.0
 40
4.0
 40
4.0
 40
4.0
 40
5.0
 40
5.0
 40
5.0
 40
5.0
 10
146.7492181814647
 20
-107.2598175720854
 30
0.0
 10
146.7492181814647
 20
-106.4313904473798
 30
0.0
 10
147.4207910566856
 20
-105.7598175721589
 30
0.0
 10
148.2492181813913
 20
-105.7598175721589
 30
0.0
 10
149.077645306097
 20
-105.7598175721589
 30
0.0
 10
149.7492181813182
 20
-106.4313904473798
 30
0.0
 10
149.7492181813182
 20
-107.2598175720854
 30
0.0
 10
149.7492181813182
 20
-108.0882446967911
 30
0.0
 10
149.077645306097
 20
-108.759817572012
 30
0.0
 10
148.2492181813913
 20
-108.759817572012
 30
0.0
 10
147.4207910566856
 20
-108.759817572012
 30
0.0
 10
146.7492181814647
 20
-108.0882446967911
 30
0.0
 10
146.7492181814647
 20
-107.2598175720854
 30
0.0
 10
146.7492181814647
 20
-107.2598175720854
 30
0.0
 10
146.7492181814647
 20
-107.2598175720854
 30
0.0
 10
146.7492181814647
 20
-107.2598175720854
 30
0.0
  0
ENDBLK
  5
41F
330
41C
100
AcDbEntity
  8
0
100
AcDbBlockEnd
  0
BLOCK
  5
423
330
421
100
AcDbEntity
  8
0
100
AcDbBlockBegin
  2
block 142
 70
     0
 10
0.0
 20
0.0
 30
0.0
  3
block 142
  1

  0
POLYLINE
  5
425
330
421
100
AcDbEntity
  8
interieur
370
     0
100
AcDb2dPolyline
 66
     1
 10
0.0
 20
0.0
 30
0.0
  0
VERTEX
  5
426
330
425
100
AcDbEntity
  8
interieur
370
     0
100
AcDbVertex
100
AcDb2dVertex
 10
158.8558198991915
 20
-103.7242836661856
 30
0.0
  0
VERTEX
  5
427
330
425
100
AcDbEntity
  8
interieur
370
     0
100
AcDbVertex
100
AcDb2dVertex
 10
151.7847520872915
 20
-96.65321585428549
 30
0.0
  0
SEQEND
  5
428
330
425
100
AcDbEntity
  8
interieur
370
     0
  0
ENDBLK
  5
424
330
421
100
AcDbEntity
  8
0
100
AcDbBlockEnd
  0
BLOCK
  5
42B
330
429
100
AcDbEntity
  8
0
100
AcDbBlockBegin
  2
block 143
 70
     0
 10
0.0
 20
0.0
 30
0.0
  3
block 143
  1

  0
POLYLINE
  5
42D
330
429
100
AcDbEntity
  8
interieur
370
     0
100
AcDb2dPolyline
 66
     1
 10
0.0
 20
0.0
 30
0.0
  0
VERTEX
  5
42E
330
42D
100
AcDbEntity
  8
interieur
370
     0
100
AcDbVertex
100
AcDb2dVertex
 10
165.2197809298915
 20
-97.36032263548567
 30
0.0
  0
VERTEX
  5
42F
330
42D
100
AcDbEntity
  8
interieur
370
     0
100
AcDbVertex
100
AcDb2dVertex
 10
158.8558198991915
 20
-103.7242836661856
 30
0.0
  0
SEQEND
  5
430
330
42D
100
AcDbEntity
  8
interieur
370
     0
  0
ENDBLK
  5
42C
330
429
100
AcDbEntity
  8
0
100
AcDbBlockEnd
  0
BLOCK
  5
433
330
431
100
AcDbEntity
  8
0
100
AcDbBlockBegin
  2
block 144
 70
     0
 10
0.0
 20
0.0
 30
0.0
  3
block 144
  1

  0
POLYLINE
  5
435
330
431
100
AcDbEntity
  8
interieur
370
     0
100
AcDb2dPolyline
 66
     1
 10
0.0
 20
0.0
 30
0.0
  0
VERTEX
  5
436
330
435
100
AcDbEntity
  8
interieur
370
     0
100
AcDbVertex
100
AcDb2dVertex
 10
172.4322700979914
 20
-104.5728118035853
 30
0.0
  0
VERTEX
  5
437
330
435
100
AcDbEntity
  8
interieur
370
     0
100
AcDbVertex
100
AcDb2dVertex
 10
165.2197809298915
 20
-97.36032263548567
 30
0.0
  0
SEQEND
  5
438
330
435
100
AcDbEntity
  8
interieur
370
     0
  0
ENDBLK
  5
434
330
431
100
AcDbEntity
  8
0
100
AcDbBlockEnd
  0
BLOCK
  5
43B
330
439
100
AcDbEntity
  8
0
100
AcDbBlockBegin
  2
block 145
 70
     0
 10
0.0
 20
0.0
 30
0.0
  3
block 145
  1

  0
POLYLINE
  5
43D
330
439
100
AcDbEntity
  8
interieur
370
     0
100
AcDb2dPolyline
 66
     1
 10
0.0
 20
0.0
 30
0.0
  0
VERTEX
  5
43E
330
43D
100
AcDbEntity
  8
interieur
370
     0
100
AcDbVertex
100
AcDb2dVertex
 10
166.0683090672915
 20
-110.9367728342856
 30
0.0
  0
VERTEX
  5
43F
330
43D
100
AcDbEntity
  8
interieur
370
     0
100
AcDbVertex
100
AcDb2dVertex
 10
172.4322700979914
 20
-104.5728118035853
 30
0.0
  0
SEQEND
  5
440
330
43D
100
AcDbEntity
  8
interieur
370
     0
  0
ENDBLK
  5
43C
330
439
100
AcDbEntity
  8
0
100
AcDbBlockEnd
  0
BLOCK
  5
443
330
441
100
AcDbEntity
  8
0
100
AcDbBlockBegin
  2
block 146
 70
     0
 10
0.0
 20
0.0
 30
0.0
  3
block 146
  1

  0
POLYLINE
  5
445
330
441
100
AcDbEntity
  8
interieur
370
     0
100
AcDb2dPolyline
 66
     1
 10
0.0
 20
0.0
 30
0.0
  0
VERTEX
  5
446
330
445
100
AcDbEntity
  8
interieur
370
     0
100
AcDbVertex
100
AcDb2dVertex
 10
166.0683090672915
 20
-110.9367728342856
 30
0.0
  0
VERTEX
  5
6D9
330
445
100
AcDbEntity
  8
0
100
AcDbVertex
100
AcDb2dVertex
 10
166.0683090672915
 20
-110.9367728342856
 30
0.0
  0
SEQEND
  5
447
330
445
100
AcDbEntity
  8
interieur
370
     0
  0
ENDBLK
  5
444
330
441
100
AcDbEntity
  8
0
100
AcDbBlockEnd
  0
BLOCK
  5
44A
330
448
100
AcDbEntity
  8
0
100
AcDbBlockBegin
  2
block 147
 70
     0
 10
0.0
 20
0.0
 30
0.0
  3
block 147
  1

  0
POLYLINE
  5
44C
330
448
100
AcDbEntity
  8
interieur
370
     0
100
AcDb2dPolyline
 66
     1
 10
0.0
 20
0.0
 30
0.0
  0
VERTEX
  5
44D
330
44C
100
AcDbEntity
  8
interieur
370
     0
100
AcDbVertex
100
AcDb2dVertex
 10
154.6131792120915
 20
-107.9669243532856
 30
0.0
  0
VERTEX
  5
6DA
330
44C
100
AcDbEntity
  8
0
100
AcDbVertex
100
AcDb2dVertex
 10
154.6131792120915
 20
-107.9669243532856
 30
0.0
  0
SEQEND
  5
44E
330
44C
100
AcDbEntity
  8
interieur
370
     0
  0
ENDBLK
  5
44B
330
448
100
AcDbEntity
  8
0
100
AcDbBlockEnd
  0
BLOCK
  5
451
330
44F
100
AcDbEntity
  8
0
100
AcDbBlockBegin
  2
block 148
 70
     0
 10
0.0
 20
0.0
 30
0.0
  3
block 148
  1

  0
POLYLINE
  5
453
330
44F
100
AcDbEntity
  8
interieur
370
     0
100
AcDb2dPolyline
 66
     1
 10
0.0
 20
0.0
 30
0.0
  0
VERTEX
  5
454
330
453
100
AcDbEntity
  8
interieur
370
     0
100
AcDbVertex
100
AcDb2dVertex
 10
147.5421114001914
 20
-100.8958565414853
 30
0.0
  0
VERTEX
  5
455
330
453
100
AcDbEntity
  8
interieur
370
     0
100
AcDbVertex
100
AcDb2dVertex
 10
154.6131792120915
 20
-107.9669243532856
 30
0.0
  0
SEQEND
  5
456
330
453
100
AcDbEntity
  8
interieur
370
     0
  0
ENDBLK
  5
452
330
44F
100
AcDbEntity
  8
0
100
AcDbBlockEnd
  0
BLOCK
  5
459
330
457
100
AcDbEntity
  8
0
100
AcDbBlockBegin
  2
block 149
 70
     0
 10
0.0
 20
0.0
 30
0.0
  3
block 149
  1

  0
POLYLINE
  5
45B
330
457
100
AcDbEntity
  8
interieur
370
     0
100
AcDb2dPolyline
 66
     1
 10
0.0
 20
0.0
 30
0.0
  0
VERTEX
  5
45C
330
45B
100
AcDbEntity
  8
interieur
370
     0
100
AcDbVertex
100
AcDb2dVertex
 10
151.7847520872915
 20
-96.65321585428549
 30
0.0
  0
VERTEX
  5
45D
330
45B
100
AcDbEntity
  8
interieur
370
     0
100
AcDbVertex
100
AcDb2dVertex
 10
147.5421114001914
 20
-100.8958565414853
 30
0.0
  0
SEQEND
  5
45E
330
45B
100
AcDbEntity
  8
interieur
370
     0
  0
ENDBLK
  5
45A
330
457
100
AcDbEntity
  8
0
100
AcDbBlockEnd
  0
BLOCK
  5
461
330
45F
100
AcDbEntity
  8
0
100
AcDbBlockBegin
  2
block 150
 70
     0
 10
0.0
 20
0.0
 30
0.0
  3
block 150
  1

  0
SPLINE
  5
463
330
45F
100
AcDbEntity
  8
interieur
370
     0
100
AcDbSpline
210
0.0
220
0.0
230
1.0
 70
    11
 71
     3
 72
    20
 73
    16
 74
     0
 42
0.0000000001
 43
0.0000000001
 12
1.0
 22
0.0
 32
0.0
 13
1.0
 23
0.0
 33
0.0
 40
0.0
 40
0.0
 40
0.0
 40
0.0
 40
1.0
 40
1.0
 40
1.0
 40
2.0
 40
2.0
 40
2.0
 40
3.0
 40
3.0
 40
3.0
 40
4.0
 40
4.0
 40
4.0
 40
5.0
 40
5.0
 40
5.0
 40
5.0
 10
156.6487131179878
 20
-97.36032263548567
 30
0.0
 10
156.6487131179878
 20
-96.53189551073731
 30
0.0
 10
157.3202859932433
 20
-95.86032263548177
 30
0.0
 10
158.1487131179914
 20
-95.86032263548177
 30
0.0
 10
158.9771402427397
 20
-95.86032263548177
 30
0.0
 10
159.6487131179953
 20
-96.53189551073731
 30
0.0
 10
159.6487131179953
 20
-97.36032263548567
 30
0.0
 10
159.6487131179953
 20
-98.1887497602337
 30
0.0
 10
158.9771402427397
 20
-98.86032263548925
 30
0.0
 10
158.1487131179914
 20
-98.86032263548925
 30
0.0
 10
157.3202859932433
 20
-98.86032263548925
 30
0.0
 10
156.6487131179878
 20
-98.1887497602337
 30
0.0
 10
156.6487131179878
 20
-97.36032263548567
 30
0.0
 10
156.6487131179878
 20
-97.36032263548567
 30
0.0
 10
156.6487131179878
 20
-97.36032263548567
 30
0.0
 10
156.6487131179878
 20
-97.36032263548567
 30
0.0
  0
ENDBLK
  5
462
330
45F
100
AcDbEntity
  8
0
100
AcDbBlockEnd
  0
BLOCK
  5
466
330
464
100
AcDbEntity
  8
0
100
AcDbBlockBegin
  2
block 151
 70
     0
 10
0.0
 20
0.0
 30
0.0
  3
block 151
  1

  0
POLYLINE
  5
468
330
464
100
AcDbEntity
  8
interieur
370
     0
100
AcDb2dPolyline
 66
     1
 10
0.0
 20
0.0
 30
0.0
  0
VERTEX
  5
469
330
468
100
AcDbEntity
  8
interieur
370
     0
100
AcDbVertex
100
AcDb2dVertex
 10
172.4322700978913
 20
-110.1438796154517
 30
0.0
  0
VERTEX
  5
6DB
330
468
100
AcDbEntity
  8
0
100
AcDbVertex
100
AcDb2dVertex
 10
172.4322700978913
 20
-110.1438796154517
 30
0.0
  0
SEQEND
  5
46A
330
468
100
AcDbEntity
  8
interieur
370
     0
  0
ENDBLK
  5
467
330
464
100
AcDbEntity
  8
0
100
AcDbBlockEnd
  0
BLOCK
  5
46D
330
46B
100
AcDbEntity
  8
0
100
AcDbBlockBegin
  2
block 152
 70
     0
 10
0.0
 20
0.0
 30
0.0
  3
block 152
  1

  0
SPLINE
  5
46F
330
46B
100
AcDbEntity
  8
interieur
370
     0
100
AcDbSpline
210
0.0
220
0.0
230
1.0
 70
    11
 71
     3
 72
    20
 73
    16
 74
     0
 42
0.0000000001
 43
0.0000000001
 12
1.0
 22
0.0
 32
0.0
 13
1.0
 23
0.0
 33
0.0
 40
0.0
 40
0.0
 40
0.0
 40
0.0
 40
1.0
 40
1.0
 40
1.0
 40
2.0
 40
2.0
 40
2.0
 40
3.0
 40
3.0
 40
3.0
 40
4.0
 40
4.0
 40
4.0
 40
5.0
 40
5.0
 40
5.0
 40
5.0
 10
161.0327751612784
 20
-121.5433745520855
 30
0.0
 10
161.0327751612784
 20
-120.714947427332
 30
0.0
 10
161.7043480365381
 20
-120.0433745520723
 30
0.0
 10
162.5327751612913
 20
-120.0433745520723
 30
0.0
 10
163.3612022860447
 20
-120.0433745520723
 30
0.0
 10
164.0327751613045
 20
-120.714947427332
 30
0.0
 10
164.0327751613045
 20
-121.5433745520855
 30
0.0
 10
164.0327751613045
 20
-122.3718016768387
 30
0.0
 10
163.3612022860447
 20
-123.0433745520984
 30
0.0
 10
162.5327751612913
 20
-123.0433745520984
 30
0.0
 10
161.7043480365381
 20
-123.0433745520984
 30
0.0
 10
161.0327751612784
 20
-122.3718016768387
 30
0.0
 10
161.0327751612784
 20
-121.5433745520855
 30
0.0
 10
161.0327751612784
 20
-121.5433745520855
 30
0.0
 10
161.0327751612784
 20
-121.5433745520855
 30
0.0
 10
161.0327751612784
 20
-121.5433745520855
 30
0.0
  0
ENDBLK
  5
46E
330
46B
100
AcDbEntity
  8
0
100
AcDbBlockEnd
  0
BLOCK
  5
476
330
474
100
AcDbEntity
  8
0
100
AcDbBlockBegin
  2
block 153
 70
     0
 10
0.0
 20
0.0
 30
0.0
  3
block 153
  1

  0
POLYLINE
  5
478
330
474
100
AcDbEntity
  8
interieur
370
     0
100
AcDb2dPolyline
 66
     1
 10
0.0
 20
0.0
 30
0.0
  0
VERTEX
  5
479
330
478
100
AcDbEntity
  8
interieur
370
     0
100
AcDbVertex
100
AcDb2dVertex
 10
168.8967361919915
 20
-122.2504813332854
 30
0.0
  0
VERTEX
  5
47A
330
478
100
AcDbEntity
  8
interieur
370
     0
100
AcDbVertex
100
AcDb2dVertex
 10
173.1393768791913
 20
-118.0078406461854
 30
0.0
  0
SEQEND
  5
47B
330
478
100
AcDbEntity
  8
interieur
370
     0
  0
ENDBLK
  5
477
330
474
100
AcDbEntity
  8
0
100
AcDbBlockEnd
  0
BLOCK
  5
47E
330
47C
100
AcDbEntity
  8
0
100
AcDbBlockBegin
  2
block 154
 70
     0
 10
0.0
 20
0.0
 30
0.0
  3
block 154
  1

  0
POLYLINE
  5
480
330
47C
100
AcDbEntity
  8
interieur
370
     0
100
AcDb2dPolyline
 66
     1
 10
0.0
 20
0.0
 30
0.0
  0
VERTEX
  5
481
330
480
100
AcDbEntity
  8
interieur
370
     0
100
AcDbVertex
100
AcDb2dVertex
 10
161.8256683801915
 20
-115.1794135213856
 30
0.0
  0
VERTEX
  5
482
330
480
100
AcDbEntity
  8
interieur
370
     0
100
AcDbVertex
100
AcDb2dVertex
 10
168.8967361919915
 20
-122.2504813332854
 30
0.0
  0
SEQEND
  5
483
330
480
100
AcDbEntity
  8
interieur
370
     0
  0
ENDBLK
  5
47F
330
47C
100
AcDbEntity
  8
0
100
AcDbBlockEnd
  0
BLOCK
  5
486
330
484
100
AcDbEntity
  8
0
100
AcDbBlockBegin
  2
block 155
 70
     0
 10
0.0
 20
0.0
 30
0.0
  3
block 155
  1

  0
POLYLINE
  5
488
330
484
100
AcDbEntity
  8
interieur
370
     0
100
AcDb2dPolyline
 66
     1
 10
0.0
 20
0.0
 30
0.0
  0
VERTEX
  5
489
330
488
100
AcDbEntity
  8
interieur
370
     0
100
AcDbVertex
100
AcDb2dVertex
 10
155.4617073494916
 20
-121.5433745520855
 30
0.0
  0
VERTEX
  5
48A
330
488
100
AcDbEntity
  8
interieur
370
     0
100
AcDbVertex
100
AcDb2dVertex
 10
161.8256683801915
 20
-115.1794135213856
 30
0.0
  0
SEQEND
  5
48B
330
488
100
AcDbEntity
  8
interieur
370
     0
  0
ENDBLK
  5
487
330
484
100
AcDbEntity
  8
0
100
AcDbBlockEnd
  0
BLOCK
  5
48E
330
48C
100
AcDbEntity
  8
0
100
AcDbBlockBegin
  2
block 156
 70
     0
 10
0.0
 20
0.0
 30
0.0
  3
block 156
  1

  0
POLYLINE
  5
490
330
48C
100
AcDbEntity
  8
interieur
370
     0
100
AcDb2dPolyline
 66
     1
 10
0.0
 20
0.0
 30
0.0
  0
VERTEX
  5
491
330
490
100
AcDbEntity
  8
interieur
370
     0
100
AcDbVertex
100
AcDb2dVertex
 10
148.2492181813913
 20
-114.3308853839855
 30
0.0
  0
VERTEX
  5
492
330
490
100
AcDbEntity
  8
interieur
370
     0
100
AcDbVertex
100
AcDb2dVertex
 10
155.4617073494916
 20
-121.5433745520855
 30
0.0
  0
SEQEND
  5
493
330
490
100
AcDbEntity
  8
interieur
370
     0
  0
ENDBLK
  5
48F
330
48C
100
AcDbEntity
  8
0
100
AcDbBlockEnd
  0
BLOCK
  5
49B
330
499
100
AcDbEntity
  8
0
100
AcDbBlockBegin
  2
block 157
 70
     0
 10
0.0
 20
0.0
 30
0.0
  3
block 157
  1

  0
SPLINE
  5
49D
330
499
100
AcDbEntity
  8
interieur
370
     0
100
AcDbSpline
210
0.0
220
0.0
230
1.0
 70
    11
 71
     3
 72
    20
 73
    16
 74
     0
 42
0.0000000001
 43
0.0000000001
 12
1.0
 22
0.0
 32
0.0
 13
1.0
 23
0.0
 33
0.0
 40
0.0
 40
0.0
 40
0.0
 40
0.0
 40
1.0
 40
1.0
 40
1.0
 40
2.0
 40
2.0
 40
2.0
 40
3.0
 40
3.0
 40
3.0
 40
4.0
 40
4.0
 40
4.0
 40
5.0
 40
5.0
 40
5.0
 40
5.0
 10
169.2316171094913
 20
-148.3427215590859
 30
0.0
 10
169.2316171094913
 20
-131.7741790641617
 30
0.0
 10
182.6630746145676
 20
-118.3427215590855
 30
0.0
 10
199.2316171094914
 20
-118.3427215590855
 30
0.0
 10
215.8001596044149
 20
-118.3427215590855
 30
0.0
 10
229.2316171094912
 20
-131.7741790641617
 30
0.0
 10
229.2316171094912
 20
-148.3427215590859
 30
0.0
 10
229.2316171094912
 20
-164.9112640540091
 30
0.0
 10
215.8001596044149
 20
-178.3427215590853
 30
0.0
 10
199.2316171094914
 20
-178.3427215590853
 30
0.0
 10
182.6630746145676
 20
-178.3427215590853
 30
0.0
 10
169.2316171094913
 20
-164.9112640540091
 30
0.0
 10
169.2316171094913
 20
-148.3427215590859
 30
0.0
 10
169.2316171094913
 20
-148.3427215590859
 30
0.0
 10
169.2316171094913
 20
-148.3427215590859
 30
0.0
 10
169.2316171094913
 20
-148.3427215590859
 30
0.0
  0
ENDBLK
  5
49C
330
499
100
AcDbEntity
  8
0
100
AcDbBlockEnd
  0
BLOCK
  5
4A0
330
49E
100
AcDbEntity
  8
0
100
AcDbBlockBegin
  2
block 158
 70
     0
 10
0.0
 20
0.0
 30
0.0
  3
block 158
  1

  0
POLYLINE
  5
4A2
330
49E
100
AcDbEntity
  8
interieur
370
     0
100
AcDb2dPolyline
 66
     1
 10
0.0
 20
0.0
 30
0.0
  0
VERTEX
  5
4A3
330
4A2
100
AcDbEntity
  8
interieur
370
     0
100
AcDbVertex
100
AcDb2dVertex
 10
233.7864265810912
 20
-223.1934072097852
 30
0.0
  0
VERTEX
  5
4A4
330
4A2
100
AcDbEntity
  8
interieur
370
     0
100
AcDbVertex
100
AcDb2dVertex
 10
236.2364265810915
 20
-227.4369316882855
 30
0.0
  0
SEQEND
  5
4A5
330
4A2
100
AcDbEntity
  8
interieur
370
     0
  0
ENDBLK
  5
4A1
330
49E
100
AcDbEntity
  8
0
100
AcDbBlockEnd
  0
BLOCK
  5
4A8
330
4A6
100
AcDbEntity
  8
0
100
AcDbBlockBegin
  2
block 159
 70
     0
 10
0.0
 20
0.0
 30
0.0
  3
block 159
  1

  0
POLYLINE
  5
4AA
330
4A6
100
AcDbEntity
  8
interieur
370
     0
100
AcDb2dPolyline
 66
     1
 10
0.0
 20
0.0
 30
0.0
  0
VERTEX
  5
4AB
330
4AA
100
AcDbEntity
  8
interieur
370
     0
100
AcDbVertex
100
AcDb2dVertex
 10
240.2352349836913
 20
-219.3636346925854
 30
0.0
  0
VERTEX
  5
4AC
330
4AA
100
AcDbEntity
  8
interieur
370
     0
100
AcDbVertex
100
AcDb2dVertex
 10
233.7864265810912
 20
-223.1934072097852
 30
0.0
  0
SEQEND
  5
4AD
330
4AA
100
AcDbEntity
  8
interieur
370
     0
  0
ENDBLK
  5
4A9
330
4A6
100
AcDbEntity
  8
0
100
AcDbBlockEnd
  0
BLOCK
  5
4B0
330
4AE
100
AcDbEntity
  8
0
100
AcDbBlockBegin
  2
block 160
 70
     0
 10
0.0
 20
0.0
 30
0.0
  3
block 160
  1

  0
POLYLINE
  5
4B2
330
4AE
100
AcDbEntity
  8
interieur
370
     0
100
AcDb2dPolyline
 66
     1
 10
0.0
 20
0.0
 30
0.0
  0
VERTEX
  5
4B3
330
4B2
100
AcDbEntity
  8
interieur
370
     0
100
AcDbVertex
100
AcDb2dVertex
 10
246.7268076378914
 20
-215.6068046693857
 30
0.0
  0
VERTEX
  5
4B4
330
4B2
100
AcDbEntity
  8
interieur
370
     0
100
AcDbVertex
100
AcDb2dVertex
 10
240.2352349836913
 20
-219.3636346925854
 30
0.0
  0
SEQEND
  5
4B5
330
4B2
100
AcDbEntity
  8
interieur
370
     0
  0
ENDBLK
  5
4B1
330
4AE
100
AcDbEntity
  8
0
100
AcDbBlockEnd
  0
BLOCK
  5
4B8
330
4B6
100
AcDbEntity
  8
0
100
AcDbBlockBegin
  2
block 161
 70
     0
 10
0.0
 20
0.0
 30
0.0
  3
block 161
  1

  0
POLYLINE
  5
4BA
330
4B6
100
AcDbEntity
  8
interieur
370
     0
100
AcDb2dPolyline
 66
     1
 10
0.0
 20
0.0
 30
0.0
  0
VERTEX
  5
4BB
330
4BA
100
AcDbEntity
  8
interieur
370
     0
100
AcDbVertex
100
AcDb2dVertex
 10
249.2268076378912
 20
-219.9369316882855
 30
0.0
  0
VERTEX
  5
4BC
330
4BA
100
AcDbEntity
  8
interieur
370
     0
100
AcDbVertex
100
AcDb2dVertex
 10
246.7268076378914
 20
-215.6068046693857
 30
0.0
  0
SEQEND
  5
4BD
330
4BA
100
AcDbEntity
  8
interieur
370
     0
  0
ENDBLK
  5
4B9
330
4B6
100
AcDbEntity
  8
0
100
AcDbBlockEnd
  0
BLOCK
  5
4C0
330
4BE
100
AcDbEntity
  8
0
100
AcDbBlockBegin
  2
block 162
 70
     0
 10
0.0
 20
0.0
 30
0.0
  3
block 162
  1

  0
POLYLINE
  5
4C2
330
4BE
100
AcDbEntity
  8
interieur
370
     0
100
AcDb2dPolyline
 66
     1
 10
0.0
 20
0.0
 30
0.0
  0
VERTEX
  5
4C3
330
4C2
100
AcDbEntity
  8
interieur
370
     0
100
AcDbVertex
100
AcDb2dVertex
 10
236.2364265810915
 20
-227.4369316882855
 30
0.0
  0
VERTEX
  5
4C4
330
4C2
100
AcDbEntity
  8
interieur
370
     0
100
AcDbVertex
100
AcDb2dVertex
 10
249.2268076378912
 20
-219.9369316882855
 30
0.0
  0
SEQEND
  5
4C5
330
4C2
100
AcDbEntity
  8
interieur
370
     0
  0
ENDBLK
  5
4C1
330
4BE
100
AcDbEntity
  8
0
100
AcDbBlockEnd
  0
BLOCK
  5
4C8
330
4C6
100
AcDbEntity
  8
0
100
AcDbBlockBegin
  2
block 163
 70
     0
 10
0.0
 20
0.0
 30
0.0
  3
block 163
  1

  0
POLYLINE
  5
4CA
330
4C6
100
AcDbEntity
  8
interieur
370
     0
100
AcDb2dPolyline
 66
     1
 10
0.0
 20
0.0
 30
0.0
  0
VERTEX
  5
4CB
330
4CA
100
AcDbEntity
  8
interieur
370
     0
100
AcDbVertex
100
AcDb2dVertex
 10
251.3900536673914
 20
-258.0427675691855
 30
0.0
  0
VERTEX
  5
4CC
330
4CA
100
AcDbEntity
  8
interieur
370
     0
100
AcDbVertex
100
AcDb2dVertex
 10
238.3900536673916
 20
-235.5261070707857
 30
0.0
  0
SEQEND
  5
4CD
330
4CA
100
AcDbEntity
  8
interieur
370
     0
  0
ENDBLK
  5
4C9
330
4C6
100
AcDbEntity
  8
0
100
AcDbBlockEnd
  0
BLOCK
  5
4D8
330
4D6
100
AcDbEntity
  8
0
100
AcDbBlockBegin
  2
block 164
 70
     0
 10
0.0
 20
0.0
 30
0.0
  3
block 164
  1

  0
POLYLINE
  5
4DA
330
4D6
100
AcDbEntity
  8
interieur
370
     0
100
AcDb2dPolyline
 66
     1
 10
0.0
 20
0.0
 30
0.0
  0
VERTEX
  5
4DB
330
4DA
100
AcDbEntity
  8
interieur
370
     0
100
AcDbVertex
100
AcDb2dVertex
 10
238.3900536673916
 20
-235.5261070707857
 30
0.0
  0
VERTEX
  5
4DC
330
4DA
100
AcDbEntity
  8
interieur
370
     0
100
AcDbVertex
100
AcDb2dVertex
 10
234.0599266484911
 20
-238.0261070707855
 30
0.0
  0
SEQEND
  5
4DD
330
4DA
100
AcDbEntity
  8
interieur
370
     0
  0
ENDBLK
  5
4D9
330
4D6
100
AcDbEntity
  8
0
100
AcDbBlockEnd
  0
BLOCK
  5
4E0
330
4DE
100
AcDbEntity
  8
0
100
AcDbBlockBegin
  2
block 165
 70
     0
 10
0.0
 20
0.0
 30
0.0
  3
block 165
  1

  0
POLYLINE
  5
4E2
330
4DE
100
AcDbEntity
  8
interieur
370
     0
100
AcDb2dPolyline
 66
     1
 10
0.0
 20
0.0
 30
0.0
  0
VERTEX
  5
4E3
330
4E2
100
AcDbEntity
  8
interieur
370
     0
100
AcDbVertex
100
AcDb2dVertex
 10
243.0364265810911
 20
-239.2148771797852
 30
0.0
  0
VERTEX
  5
4E4
330
4E2
100
AcDbEntity
  8
interieur
370
     0
100
AcDbVertex
100
AcDb2dVertex
 10
245.4864265810913
 20
-243.4584016583855
 30
0.0
  0
SEQEND
  5
4E5
330
4E2
100
AcDbEntity
  8
interieur
370
     0
  0
ENDBLK
  5
4E1
330
4DE
100
AcDbEntity
  8
0
100
AcDbBlockEnd
  0
BLOCK
  5
4E8
330
4E6
100
AcDbEntity
  8
0
100
AcDbBlockBegin
  2
block 166
 70
     0
 10
0.0
 20
0.0
 30
0.0
  3
block 166
  1

  0
POLYLINE
  5
4EA
330
4E6
100
AcDbEntity
  8
interieur
370
     0
100
AcDb2dPolyline
 66
     1
 10
0.0
 20
0.0
 30
0.0
  0
VERTEX
  5
4EB
330
4EA
100
AcDbEntity
  8
interieur
370
     0
100
AcDbVertex
100
AcDb2dVertex
 10
249.4813284343913
 20
-235.3784413060855
 30
0.0
  0
VERTEX
  5
4EC
330
4EA
100
AcDbEntity
  8
interieur
370
     0
100
AcDbVertex
100
AcDb2dVertex
 10
243.0364265810911
 20
-239.2148771797852
 30
0.0
  0
SEQEND
  5
4ED
330
4EA
100
AcDbEntity
  8
interieur
370
     0
  0
ENDBLK
  5
4E9
330
4E6
100
AcDbEntity
  8
0
100
AcDbBlockEnd
  0
BLOCK
  5
4F0
330
4EE
100
AcDbEntity
  8
0
100
AcDbBlockBegin
  2
block 167
 70
     0
 10
0.0
 20
0.0
 30
0.0
  3
block 167
  1

  0
POLYLINE
  5
4F2
330
4EE
100
AcDbEntity
  8
interieur
370
     0
100
AcDb2dPolyline
 66
     1
 10
0.0
 20
0.0
 30
0.0
  0
VERTEX
  5
4F3
330
4F2
100
AcDbEntity
  8
interieur
370
     0
100
AcDbVertex
100
AcDb2dVertex
 10
255.9768076378913
 20
-231.6282746393856
 30
0.0
  0
VERTEX
  5
4F4
330
4F2
100
AcDbEntity
  8
interieur
370
     0
100
AcDbVertex
100
AcDb2dVertex
 10
249.4813284343913
 20
-235.3784413060855
 30
0.0
  0
SEQEND
  5
4F5
330
4F2
100
AcDbEntity
  8
interieur
370
     0
  0
ENDBLK
  5
4F1
330
4EE
100
AcDbEntity
  8
0
100
AcDbBlockEnd
  0
BLOCK
  5
4F8
330
4F6
100
AcDbEntity
  8
0
100
AcDbBlockBegin
  2
block 168
 70
     0
 10
0.0
 20
0.0
 30
0.0
  3
block 168
  1

  0
POLYLINE
  5
4FA
330
4F6
100
AcDbEntity
  8
interieur
370
     0
100
AcDb2dPolyline
 66
     1
 10
0.0
 20
0.0
 30
0.0
  0
VERTEX
  5
4FB
330
4FA
100
AcDbEntity
  8
interieur
370
     0
100
AcDbVertex
100
AcDb2dVertex
 10
258.4768076378917
 20
-235.9584016583856
 30
0.0
  0
VERTEX
  5
4FC
330
4FA
100
AcDbEntity
  8
interieur
370
     0
100
AcDbVertex
100
AcDb2dVertex
 10
255.9768076378913
 20
-231.6282746393856
 30
0.0
  0
SEQEND
  5
4FD
330
4FA
100
AcDbEntity
  8
interieur
370
     0
  0
ENDBLK
  5
4F9
330
4F6
100
AcDbEntity
  8
0
100
AcDbBlockEnd
  0
BLOCK
  5
500
330
4FE
100
AcDbEntity
  8
0
100
AcDbBlockBegin
  2
block 169
 70
     0
 10
0.0
 20
0.0
 30
0.0
  3
block 169
  1

  0
POLYLINE
  5
502
330
4FE
100
AcDbEntity
  8
interieur
370
     0
100
AcDb2dPolyline
 66
     1
 10
0.0
 20
0.0
 30
0.0
  0
VERTEX
  5
503
330
502
100
AcDbEntity
  8
interieur
370
     0
100
AcDbVertex
100
AcDb2dVertex
 10
245.4864265810913
 20
-243.4584016583855
 30
0.0
  0
VERTEX
  5
504
330
502
100
AcDbEntity
  8
interieur
370
     0
100
AcDbVertex
100
AcDb2dVertex
 10
258.4768076378917
 20
-235.9584016583856
 30
0.0
  0
SEQEND
  5
505
330
502
100
AcDbEntity
  8
interieur
370
     0
  0
ENDBLK
  5
501
330
4FE
100
AcDbEntity
  8
0
100
AcDbBlockEnd
  0
BLOCK
  5
508
330
506
100
AcDbEntity
  8
0
100
AcDbBlockBegin
  2
block 170
 70
     0
 10
0.0
 20
0.0
 30
0.0
  3
block 170
  1

  0
POLYLINE
  5
50A
330
506
100
AcDbEntity
  8
interieur
370
     0
100
AcDb2dPolyline
 66
     1
 10
0.0
 20
0.0
 30
0.0
  0
VERTEX
  5
50B
330
50A
100
AcDbEntity
  8
interieur
370
     0
100
AcDbVertex
100
AcDb2dVertex
 10
277.6818861902912
 20
-223.3384516168852
 30
0.0
  0
VERTEX
  5
50C
330
50A
100
AcDbEntity
  8
interieur
370
     0
100
AcDbVertex
100
AcDb2dVertex
 10
287.6818861902916
 20
-223.3384516168852
 30
0.0
  0
SEQEND
  5
50D
330
50A
100
AcDbEntity
  8
interieur
370
     0
  0
ENDBLK
  5
509
330
506
100
AcDbEntity
  8
0
100
AcDbBlockEnd
  0
BLOCK
  5
510
330
50E
100
AcDbEntity
  8
0
100
AcDbBlockBegin
  2
block 171
 70
     0
 10
0.0
 20
0.0
 30
0.0
  3
block 171
  1

  0
POLYLINE
  5
512
330
50E
100
AcDbEntity
  8
interieur
370
     0
100
AcDb2dPolyline
 66
     1
 10
0.0
 20
0.0
 30
0.0
  0
VERTEX
  5
513
330
512
100
AcDbEntity
  8
interieur
370
     0
100
AcDbVertex
100
AcDb2dVertex
 10
277.6818861902912
 20
-218.3384516168857
 30
0.0
  0
VERTEX
  5
514
330
512
100
AcDbEntity
  8
interieur
370
     0
100
AcDbVertex
100
AcDb2dVertex
 10
277.6818861902912
 20
-223.3384516168852
 30
0.0
  0
SEQEND
  5
515
330
512
100
AcDbEntity
  8
interieur
370
     0
  0
ENDBLK
  5
511
330
50E
100
AcDbEntity
  8
0
100
AcDbBlockEnd
  0
BLOCK
  5
518
330
516
100
AcDbEntity
  8
0
100
AcDbBlockBegin
  2
block 172
 70
     0
 10
0.0
 20
0.0
 30
0.0
  3
block 172
  1

  0
POLYLINE
  5
51A
330
516
100
AcDbEntity
  8
interieur
370
     0
100
AcDb2dPolyline
 66
     1
 10
0.0
 20
0.0
 30
0.0
  0
VERTEX
  5
51B
330
51A
100
AcDbEntity
  8
interieur
370
     0
100
AcDbVertex
100
AcDb2dVertex
 10
287.6818861902916
 20
-218.3384516168857
 30
0.0
  0
VERTEX
  5
51C
330
51A
100
AcDbEntity
  8
interieur
370
     0
100
AcDbVertex
100
AcDb2dVertex
 10
277.6818861902912
 20
-218.3384516168857
 30
0.0
  0
SEQEND
  5
51D
330
51A
100
AcDbEntity
  8
interieur
370
     0
  0
ENDBLK
  5
519
330
516
100
AcDbEntity
  8
0
100
AcDbBlockEnd
  0
BLOCK
  5
520
330
51E
100
AcDbEntity
  8
0
100
AcDbBlockBegin
  2
block 173
 70
     0
 10
0.0
 20
0.0
 30
0.0
  3
block 173
  1

  0
POLYLINE
  5
522
330
51E
100
AcDbEntity
  8
interieur
370
     0
100
AcDb2dPolyline
 66
     1
 10
0.0
 20
0.0
 30
0.0
  0
VERTEX
  5
523
330
522
100
AcDbEntity
  8
interieur
370
     0
100
AcDbVertex
100
AcDb2dVertex
 10
287.6818861902916
 20
-223.3384516168852
 30
0.0
  0
VERTEX
  5
524
330
522
100
AcDbEntity
  8
interieur
370
     0
100
AcDbVertex
100
AcDb2dVertex
 10
287.6818861902916
 20
-218.3384516168857
 30
0.0
  0
SEQEND
  5
525
330
522
100
AcDbEntity
  8
interieur
370
     0
  0
ENDBLK
  5
521
330
51E
100
AcDbEntity
  8
0
100
AcDbBlockEnd
  0
BLOCK
  5
53C
330
53A
100
AcDbEntity
  8
0
100
AcDbBlockBegin
  2
block 174
 70
     0
 10
0.0
 20
0.0
 30
0.0
  3
block 174
  1

  0
POLYLINE
  5
53E
330
53A
100
AcDbEntity
  8
interieur
370
     0
100
AcDb2dPolyline
 66
     1
 10
0.0
 20
0.0
 30
0.0
  0
VERTEX
  5
53F
330
53E
100
AcDbEntity
  8
interieur
370
     0
100
AcDbVertex
100
AcDb2dVertex
 10
277.6842053291916
 20
-73.3402341563855
 30
0.0
  0
VERTEX
  5
540
330
53E
100
AcDbEntity
  8
interieur
370
     0
100
AcDbVertex
100
AcDb2dVertex
 10
277.6842053291916
 20
-78.34023415638536
 30
0.0
  0
SEQEND
  5
541
330
53E
100
AcDbEntity
  8
interieur
370
     0
  0
ENDBLK
  5
53D
330
53A
100
AcDbEntity
  8
0
100
AcDbBlockEnd
  0
BLOCK
  5
548
330
546
100
AcDbEntity
  8
0
100
AcDbBlockBegin
  2
block 175
 70
     0
 10
0.0
 20
0.0
 30
0.0
  3
block 175
  1

  0
POLYLINE
  5
54A
330
546
100
AcDbEntity
  8
interieur
370
     0
100
AcDb2dPolyline
 66
     1
 10
0.0
 20
0.0
 30
0.0
  0
VERTEX
  5
54B
330
54A
100
AcDbEntity
  8
interieur
370
     0
100
AcDbVertex
100
AcDb2dVertex
 10
256.0268076378914
 20
-64.97056593838558
 30
0.0
  0
VERTEX
  5
54C
330
54A
100
AcDbEntity
  8
interieur
370
     0
100
AcDbVertex
100
AcDb2dVertex
 10
258.4768076378917
 20
-60.72704145978554
 30
0.0
  0
SEQEND
  5
54D
330
54A
100
AcDbEntity
  8
interieur
370
     0
  0
ENDBLK
  5
549
330
546
100
AcDbEntity
  8
0
100
AcDbBlockEnd
  0
BLOCK
  5
550
330
54E
100
AcDbEntity
  8
0
100
AcDbBlockBegin
  2
block 176
 70
     0
 10
0.0
 20
0.0
 30
0.0
  3
block 176
  1

  0
POLYLINE
  5
552
330
54E
100
AcDbEntity
  8
interieur
370
     0
100
AcDb2dPolyline
 66
     1
 10
0.0
 20
0.0
 30
0.0
  0
VERTEX
  5
553
330
552
100
AcDbEntity
  8
interieur
370
     0
100
AcDbVertex
100
AcDb2dVertex
 10
249.4819057845915
 20
-61.30733514538531
 30
0.0
  0
VERTEX
  5
554
330
552
100
AcDbEntity
  8
interieur
370
     0
100
AcDbVertex
100
AcDb2dVertex
 10
256.0268076378914
 20
-64.97056593838558
 30
0.0
  0
SEQEND
  5
555
330
552
100
AcDbEntity
  8
interieur
370
     0
  0
ENDBLK
  5
551
330
54E
100
AcDbEntity
  8
0
100
AcDbBlockEnd
  0
BLOCK
  5
558
330
556
100
AcDbEntity
  8
0
100
AcDbBlockBegin
  2
block 177
 70
     0
 10
0.0
 20
0.0
 30
0.0
  3
block 177
  1

  0
POLYLINE
  5
55A
330
556
100
AcDbEntity
  8
interieur
370
     0
100
AcDb2dPolyline
 66
     1
 10
0.0
 20
0.0
 30
0.0
  0
VERTEX
  5
55B
330
55A
100
AcDbEntity
  8
interieur
370
     0
100
AcDbVertex
100
AcDb2dVertex
 10
242.9864265810916
 20
-57.55716847878556
 30
0.0
  0
VERTEX
  5
55C
330
55A
100
AcDbEntity
  8
interieur
370
     0
100
AcDbVertex
100
AcDb2dVertex
 10
249.4819057845915
 20
-61.30733514538531
 30
0.0
  0
SEQEND
  5
55D
330
55A
100
AcDbEntity
  8
interieur
370
     0
  0
ENDBLK
  5
559
330
556
100
AcDbEntity
  8
0
100
AcDbBlockEnd
  0
BLOCK
  5
560
330
55E
100
AcDbEntity
  8
0
100
AcDbBlockBegin
  2
block 178
 70
     0
 10
0.0
 20
0.0
 30
0.0
  3
block 178
  1

  0
POLYLINE
  5
562
330
55E
100
AcDbEntity
  8
interieur
370
     0
100
AcDb2dPolyline
 66
     1
 10
0.0
 20
0.0
 30
0.0
  0
VERTEX
  5
563
330
562
100
AcDbEntity
  8
interieur
370
     0
100
AcDbVertex
100
AcDb2dVertex
 10
245.4864265810913
 20
-53.2270414597856
 30
0.0
  0
VERTEX
  5
564
330
562
100
AcDbEntity
  8
interieur
370
     0
100
AcDbVertex
100
AcDb2dVertex
 10
242.9864265810916
 20
-57.55716847878556
 30
0.0
  0
SEQEND
  5
565
330
562
100
AcDbEntity
  8
interieur
370
     0
  0
ENDBLK
  5
561
330
55E
100
AcDbEntity
  8
0
100
AcDbBlockEnd
  0
BLOCK
  5
568
330
566
100
AcDbEntity
  8
0
100
AcDbBlockBegin
  2
block 179
 70
     0
 10
0.0
 20
0.0
 30
0.0
  3
block 179
  1

  0
POLYLINE
  5
56A
330
566
100
AcDbEntity
  8
interieur
370
     0
100
AcDb2dPolyline
 66
     1
 10
0.0
 20
0.0
 30
0.0
  0
VERTEX
  5
56B
330
56A
100
AcDbEntity
  8
interieur
370
     0
100
AcDbVertex
100
AcDb2dVertex
 10
258.4768076378917
 20
-60.72704145978554
 30
0.0
  0
VERTEX
  5
56C
330
56A
100
AcDbEntity
  8
interieur
370
     0
100
AcDbVertex
100
AcDb2dVertex
 10
245.4864265810913
 20
-53.2270414597856
 30
0.0
  0
SEQEND
  5
56D
330
56A
100
AcDbEntity
  8
interieur
370
     0
  0
ENDBLK
  5
569
330
566
100
AcDbEntity
  8
0
100
AcDbBlockEnd
  0
BLOCK
  5
570
330
56E
100
AcDbEntity
  8
0
100
AcDbBlockBegin
  2
block 180
 70
     0
 10
0.0
 20
0.0
 30
0.0
  3
block 180
  1

  0
POLYLINE
  5
572
330
56E
100
AcDbEntity
  8
interieur
370
     0
100
AcDb2dPolyline
 66
     1
 10
0.0
 20
0.0
 30
0.0
  0
VERTEX
  5
573
330
572
100
AcDbEntity
  8
interieur
370
     0
100
AcDbVertex
100
AcDb2dVertex
 10
238.3900536672915
 20
-61.15933604728558
 30
0.0
  0
VERTEX
  5
574
330
572
100
AcDbEntity
  8
interieur
370
     0
100
AcDbVertex
100
AcDb2dVertex
 10
251.3900536672913
 20
-38.64267554888549
 30
0.0
  0
SEQEND
  5
575
330
572
100
AcDbEntity
  8
interieur
370
     0
  0
ENDBLK
  5
571
330
56E
100
AcDbEntity
  8
0
100
AcDbBlockEnd
  0
BLOCK
  5
578
330
576
100
AcDbEntity
  8
0
100
AcDbBlockBegin
  2
block 181
 70
     0
 10
0.0
 20
0.0
 30
0.0
  3
block 181
  1

  0
POLYLINE
  5
57A
330
576
100
AcDbEntity
  8
interieur
370
     0
100
AcDb2dPolyline
 66
     1
 10
0.0
 20
0.0
 30
0.0
  0
VERTEX
  5
57B
330
57A
100
AcDbEntity
  8
interieur
370
     0
100
AcDbVertex
100
AcDb2dVertex
 10
234.0599266483917
 20
-58.65933604728549
 30
0.0
  0
VERTEX
  5
57C
330
57A
100
AcDbEntity
  8
interieur
370
     0
100
AcDbVertex
100
AcDb2dVertex
 10
238.3900536672915
 20
-61.15933604728558
 30
0.0
  0
SEQEND
  5
57D
330
57A
100
AcDbEntity
  8
interieur
370
     0
  0
ENDBLK
  5
579
330
576
100
AcDbEntity
  8
0
100
AcDbBlockEnd
  0
BLOCK
  5
588
330
586
100
AcDbEntity
  8
0
100
AcDbBlockBegin
  2
block 182
 70
     0
 10
0.0
 20
0.0
 30
0.0
  3
block 182
  1

  0
POLYLINE
  5
58A
330
586
100
AcDbEntity
  8
interieur
370
     0
100
AcDb2dPolyline
 66
     1
 10
0.0
 20
0.0
 30
0.0
  0
VERTEX
  5
58B
330
58A
100
AcDbEntity
  8
interieur
370
     0
100
AcDbVertex
100
AcDb2dVertex
 10
246.7768076378916
 20
-80.99203590838519
 30
0.0
  0
VERTEX
  5
58C
330
58A
100
AcDbEntity
  8
interieur
370
     0
100
AcDbVertex
100
AcDb2dVertex
 10
249.2268076378912
 20
-76.74851142988558
 30
0.0
  0
SEQEND
  5
58D
330
58A
100
AcDbEntity
  8
interieur
370
     0
  0
ENDBLK
  5
589
330
586
100
AcDbEntity
  8
0
100
AcDbBlockEnd
  0
BLOCK
  5
590
330
58E
100
AcDbEntity
  8
0
100
AcDbBlockBegin
  2
block 183
 70
     0
 10
0.0
 20
0.0
 30
0.0
  3
block 183
  1

  0
POLYLINE
  5
592
330
58E
100
AcDbEntity
  8
interieur
370
     0
100
AcDb2dPolyline
 66
     1
 10
0.0
 20
0.0
 30
0.0
  0
VERTEX
  5
593
330
592
100
AcDbEntity
  8
interieur
370
     0
100
AcDbVertex
100
AcDb2dVertex
 10
240.2357231458913
 20
-77.32209026618555
 30
0.0
  0
VERTEX
  5
594
330
592
100
AcDbEntity
  8
interieur
370
     0
100
AcDbVertex
100
AcDb2dVertex
 10
246.7768076378916
 20
-80.99203590838519
 30
0.0
  0
SEQEND
  5
595
330
592
100
AcDbEntity
  8
interieur
370
     0
  0
ENDBLK
  5
591
330
58E
100
AcDbEntity
  8
0
100
AcDbBlockEnd
  0
BLOCK
  5
598
330
596
100
AcDbEntity
  8
0
100
AcDbBlockBegin
  2
block 184
 70
     0
 10
0.0
 20
0.0
 30
0.0
  3
block 184
  1

  0
POLYLINE
  5
59A
330
596
100
AcDbEntity
  8
interieur
370
     0
100
AcDb2dPolyline
 66
     1
 10
0.0
 20
0.0
 30
0.0
  0
VERTEX
  5
59B
330
59A
100
AcDbEntity
  8
interieur
370
     0
100
AcDbVertex
100
AcDb2dVertex
 10
233.7364265810917
 20
-73.5786384487855
 30
0.0
  0
VERTEX
  5
59C
330
59A
100
AcDbEntity
  8
interieur
370
     0
100
AcDbVertex
100
AcDb2dVertex
 10
240.2357231458913
 20
-77.32209026618555
 30
0.0
  0
SEQEND
  5
59D
330
59A
100
AcDbEntity
  8
interieur
370
     0
  0
ENDBLK
  5
599
330
596
100
AcDbEntity
  8
0
100
AcDbBlockEnd
  0
BLOCK
  5
5A0
330
59E
100
AcDbEntity
  8
0
100
AcDbBlockBegin
  2
block 185
 70
     0
 10
0.0
 20
0.0
 30
0.0
  3
block 185
  1

  0
POLYLINE
  5
5A2
330
59E
100
AcDbEntity
  8
interieur
370
     0
100
AcDb2dPolyline
 66
     1
 10
0.0
 20
0.0
 30
0.0
  0
VERTEX
  5
5A3
330
5A2
100
AcDbEntity
  8
interieur
370
     0
100
AcDbVertex
100
AcDb2dVertex
 10
236.2364265810915
 20
-69.24851142988564
 30
0.0
  0
VERTEX
  5
5A4
330
5A2
100
AcDbEntity
  8
interieur
370
     0
100
AcDbVertex
100
AcDb2dVertex
 10
233.7364265810917
 20
-73.5786384487855
 30
0.0
  0
SEQEND
  5
5A5
330
5A2
100
AcDbEntity
  8
interieur
370
     0
  0
ENDBLK
  5
5A1
330
59E
100
AcDbEntity
  8
0
100
AcDbBlockEnd
  0
BLOCK
  5
5A8
330
5A6
100
AcDbEntity
  8
0
100
AcDbBlockBegin
  2
block 186
 70
     0
 10
0.0
 20
0.0
 30
0.0
  3
block 186
  1

  0
POLYLINE
  5
5AA
330
5A6
100
AcDbEntity
  8
interieur
370
     0
100
AcDb2dPolyline
 66
     1
 10
0.0
 20
0.0
 30
0.0
  0
VERTEX
  5
5AB
330
5AA
100
AcDbEntity
  8
interieur
370
     0
100
AcDbVertex
100
AcDb2dVertex
 10
249.2268076378912
 20
-76.74851142988558
 30
0.0
  0
VERTEX
  5
5AC
330
5AA
100
AcDbEntity
  8
interieur
370
     0
100
AcDbVertex
100
AcDb2dVertex
 10
236.2364265810915
 20
-69.24851142988564
 30
0.0
  0
SEQEND
  5
5AD
330
5AA
100
AcDbEntity
  8
interieur
370
     0
  0
ENDBLK
  5
5A9
330
5A6
100
AcDbEntity
  8
0
100
AcDbBlockEnd
  0
BLOCK
  5
5B0
330
5AE
100
AcDbEntity
  8
0
100
AcDbBlockBegin
  2
block 187
 70
     0
 10
0.0
 20
0.0
 30
0.0
  3
block 187
  1

  0
POLYLINE
  5
5B2
330
5AE
100
AcDbEntity
  8
interieur
370
     0
100
AcDb2dPolyline
 66
     1
 10
0.0
 20
0.0
 30
0.0
  0
VERTEX
  5
5B3
330
5B2
100
AcDbEntity
  8
interieur
370
     0
100
AcDbVertex
100
AcDb2dVertex
 10
287.6842053291913
 20
-78.34023415638536
 30
0.0
  0
VERTEX
  5
5B4
330
5B2
100
AcDbEntity
  8
interieur
370
     0
100
AcDbVertex
100
AcDb2dVertex
 10
287.6842053291913
 20
-73.3402341563855
 30
0.0
  0
SEQEND
  5
5B5
330
5B2
100
AcDbEntity
  8
interieur
370
     0
  0
ENDBLK
  5
5B1
330
5AE
100
AcDbEntity
  8
0
100
AcDbBlockEnd
  0
BLOCK
  5
5B8
330
5B6
100
AcDbEntity
  8
0
100
AcDbBlockBegin
  2
block 188
 70
     0
 10
0.0
 20
0.0
 30
0.0
  3
block 188
  1

  0
POLYLINE
  5
5BA
330
5B6
100
AcDbEntity
  8
interieur
370
     0
100
AcDb2dPolyline
 66
     1
 10
0.0
 20
0.0
 30
0.0
  0
VERTEX
  5
5BB
330
5BA
100
AcDbEntity
  8
interieur
370
     0
100
AcDbVertex
100
AcDb2dVertex
 10
287.6842053291913
 20
-78.34023415638536
 30
0.0
  0
VERTEX
  5
6DC
330
5BA
100
AcDbEntity
  8
0
100
AcDbVertex
100
AcDb2dVertex
 10
287.6842053291913
 20
-78.34023415638536
 30
0.0
  0
SEQEND
  5
5BC
330
5BA
100
AcDbEntity
  8
interieur
370
     0
  0
ENDBLK
  5
5B9
330
5B6
100
AcDbEntity
  8
0
100
AcDbBlockEnd
  0
BLOCK
  5
5BF
330
5BD
100
AcDbEntity
  8
0
100
AcDbBlockBegin
  2
block 189
 70
     0
 10
0.0
 20
0.0
 30
0.0
  3
block 189
  1

  0
POLYLINE
  5
5C1
330
5BD
100
AcDbEntity
  8
interieur
370
     0
100
AcDb2dPolyline
 66
     1
 10
0.0
 20
0.0
 30
0.0
  0
VERTEX
  5
5C2
330
5C1
100
AcDbEntity
  8
interieur
370
     0
100
AcDbVertex
100
AcDb2dVertex
 10
287.6842053291913
 20
-73.3402341563855
 30
0.0
  0
VERTEX
  5
6DD
330
5C1
100
AcDbEntity
  8
0
100
AcDbVertex
100
AcDb2dVertex
 10
287.6842053291913
 20
-73.3402341563855
 30
0.0
  0
SEQEND
  5
5C3
330
5C1
100
AcDbEntity
  8
interieur
370
     0
  0
ENDBLK
  5
5C0
330
5BD
100
AcDbEntity
  8
0
100
AcDbBlockEnd
  0
BLOCK
  5
5D2
330
5D0
100
AcDbEntity
  8
0
100
AcDbBlockBegin
  2
block 190
 70
     0
 10
0.0
 20
0.0
 30
0.0
  3
block 190
  1

  0
POLYLINE
  5
5D4
330
5D0
100
AcDbEntity
  8
interieur
370
     0
100
AcDb2dPolyline
 66
     1
 10
0.0
 20
0.0
 30
0.0
  0
VERTEX
  5
5D5
330
5D4
100
AcDbEntity
  8
interieur
370
     0
100
AcDbVertex
100
AcDb2dVertex
 10
298.1554254716917
 20
-65.64267554888548
 30
0.0
  0
VERTEX
  5
6DE
330
5D4
100
AcDbEntity
  8
0
100
AcDbVertex
100
AcDb2dVertex
 10
298.1554254716917
 20
-65.64267554888548
 30
0.0
  0
SEQEND
  5
5D6
330
5D4
100
AcDbEntity
  8
interieur
370
     0
  0
ENDBLK
  5
5D3
330
5D0
100
AcDbEntity
  8
0
100
AcDbBlockEnd
  0
BLOCK
  5
5D9
330
5D7
100
AcDbEntity
  8
0
100
AcDbBlockBegin
  2
block 191
 70
     0
 10
0.0
 20
0.0
 30
0.0
  3
block 191
  1

  0
POLYLINE
  5
5DB
330
5D7
100
AcDbEntity
  8
interieur
370
     0
100
AcDb2dPolyline
 66
     1
 10
0.0
 20
0.0
 30
0.0
  0
VERTEX
  5
5DC
330
5DB
100
AcDbEntity
  8
interieur
370
     0
100
AcDbVertex
100
AcDb2dVertex
 10
302.4855524905915
 20
-68.14267554888556
 30
0.0
  0
VERTEX
  5
5DD
330
5DB
100
AcDbEntity
  8
interieur
370
     0
100
AcDbVertex
100
AcDb2dVertex
 10
298.1554254716917
 20
-65.64267554888548
 30
0.0
  0
SEQEND
  5
5DE
330
5DB
100
AcDbEntity
  8
interieur
370
     0
  0
ENDBLK
  5
5DA
330
5D7
100
AcDbEntity
  8
0
100
AcDbBlockEnd
  0
BLOCK
  5
5E4
330
5E2
100
AcDbEntity
  8
0
100
AcDbBlockBegin
  2
block 192
 70
     0
 10
0.0
 20
0.0
 30
0.0
  3
block 192
  1

  0
POLYLINE
  5
5E6
330
5E2
100
AcDbEntity
  8
interieur
370
     0
100
AcDb2dPolyline
 66
     1
 10
0.0
 20
0.0
 30
0.0
  0
VERTEX
  5
5E7
330
5E6
100
AcDbEntity
  8
interieur
370
     0
100
AcDbVertex
100
AcDb2dVertex
 10
108.1493721894914
 20
-121.3427215590859
 30
0.0
  0
VERTEX
  5
5E8
330
5E6
100
AcDbEntity
  8
interieur
370
     0
100
AcDbVertex
100
AcDb2dVertex
 10
134.1493721894914
 20
-121.3427215590859
 30
0.0
  0
SEQEND
  5
5E9
330
5E6
100
AcDbEntity
  8
interieur
370
     0
  0
ENDBLK
  5
5E5
330
5E2
100
AcDbEntity
  8
0
100
AcDbBlockEnd
  0
BLOCK
  5
5EC
330
5EA
100
AcDbEntity
  8
0
100
AcDbBlockBegin
  2
block 193
 70
     0
 10
0.0
 20
0.0
 30
0.0
  3
block 193
  1

  0
POLYLINE
  5
5EE
330
5EA
100
AcDbEntity
  8
interieur
370
     0
100
AcDb2dPolyline
 66
     1
 10
0.0
 20
0.0
 30
0.0
  0
VERTEX
  5
5EF
330
5EE
100
AcDbEntity
  8
interieur
370
     0
100
AcDbVertex
100
AcDb2dVertex
 10
108.1493721894914
 20
-116.3427215590854
 30
0.0
  0
VERTEX
  5
5F0
330
5EE
100
AcDbEntity
  8
interieur
370
     0
100
AcDbVertex
100
AcDb2dVertex
 10
108.1493721894914
 20
-121.3427215590859
 30
0.0
  0
SEQEND
  5
5F1
330
5EE
100
AcDbEntity
  8
interieur
370
     0
  0
ENDBLK
  5
5ED
330
5EA
100
AcDbEntity
  8
0
100
AcDbBlockEnd
  0
BLOCK
  5
5F4
330
5F2
100
AcDbEntity
  8
0
100
AcDbBlockBegin
  2
block 194
 70
     0
 10
0.0
 20
0.0
 30
0.0
  3
block 194
  1

  0
POLYLINE
  5
5F6
330
5F2
100
AcDbEntity
  8
interieur
370
     0
100
AcDb2dPolyline
 66
     1
 10
0.0
 20
0.0
 30
0.0
  0
VERTEX
  5
5F7
330
5F6
100
AcDbEntity
  8
interieur
370
     0
100
AcDbVertex
100
AcDb2dVertex
 10
134.1493721894914
 20
-116.3427215590854
 30
0.0
  0
VERTEX
  5
5F8
330
5F6
100
AcDbEntity
  8
interieur
370
     0
100
AcDbVertex
100
AcDb2dVertex
 10
108.1493721894914
 20
-116.3427215590854
 30
0.0
  0
SEQEND
  5
5F9
330
5F6
100
AcDbEntity
  8
interieur
370
     0
  0
ENDBLK
  5
5F5
330
5F2
100
AcDbEntity
  8
0
100
AcDbBlockEnd
  0
BLOCK
  5
5FC
330
5FA
100
AcDbEntity
  8
0
100
AcDbBlockBegin
  2
block 195
 70
     0
 10
0.0
 20
0.0
 30
0.0
  3
block 195
  1

  0
POLYLINE
  5
5FE
330
5FA
100
AcDbEntity
  8
interieur
370
     0
100
AcDb2dPolyline
 66
     1
 10
0.0
 20
0.0
 30
0.0
  0
VERTEX
  5
5FF
330
5FE
100
AcDbEntity
  8
interieur
370
     0
100
AcDbVertex
100
AcDb2dVertex
 10
134.1493721894914
 20
-121.3427215590859
 30
0.0
  0
VERTEX
  5
600
330
5FE
100
AcDbEntity
  8
interieur
370
     0
100
AcDbVertex
100
AcDb2dVertex
 10
134.1493721894914
 20
-116.3427215590854
 30
0.0
  0
SEQEND
  5
601
330
5FE
100
AcDbEntity
  8
interieur
370
     0
  0
ENDBLK
  5
5FD
330
5FA
100
AcDbEntity
  8
0
100
AcDbBlockEnd
  0
BLOCK
  5
604
330
602
100
AcDbEntity
  8
0
100
AcDbBlockBegin
  2
block 196
 70
     0
 10
0.0
 20
0.0
 30
0.0
  3
block 196
  1

  0
POLYLINE
  5
606
330
602
100
AcDbEntity
  8
interieur
370
     0
100
AcDb2dPolyline
 66
     1
 10
0.0
 20
0.0
 30
0.0
  0
VERTEX
  5
607
330
606
100
AcDbEntity
  8
interieur
370
     0
100
AcDbVertex
100
AcDb2dVertex
 10
117.2238931987915
 20
-148.3424397184854
 30
0.0
  0
VERTEX
  5
608
330
606
100
AcDbEntity
  8
interieur
370
     0
100
AcDbVertex
100
AcDb2dVertex
 10
117.1316171094914
 20
-140.8427215590856
 30
0.0
  0
SEQEND
  5
609
330
606
100
AcDbEntity
  8
interieur
370
     0
  0
ENDBLK
  5
605
330
602
100
AcDbEntity
  8
0
100
AcDbBlockEnd
  0
BLOCK
  5
60C
330
60A
100
AcDbEntity
  8
0
100
AcDbBlockBegin
  2
block 197
 70
     0
 10
0.0
 20
0.0
 30
0.0
  3
block 197
  1

  0
POLYLINE
  5
60E
330
60A
100
AcDbEntity
  8
interieur
370
     0
100
AcDb2dPolyline
 66
     1
 10
0.0
 20
0.0
 30
0.0
  0
VERTEX
  5
60F
330
60E
100
AcDbEntity
  8
interieur
370
     0
100
AcDbVertex
100
AcDb2dVertex
 10
117.2316171094914
 20
-155.8427215590855
 30
0.0
  0
VERTEX
  5
610
330
60E
100
AcDbEntity
  8
interieur
370
     0
100
AcDbVertex
100
AcDb2dVertex
 10
117.2238931987915
 20
-148.3424397184854
 30
0.0
  0
SEQEND
  5
611
330
60E
100
AcDbEntity
  8
interieur
370
     0
  0
ENDBLK
  5
60D
330
60A
100
AcDbEntity
  8
0
100
AcDbBlockEnd
  0
BLOCK
  5
614
330
612
100
AcDbEntity
  8
0
100
AcDbBlockBegin
  2
block 198
 70
     0
 10
0.0
 20
0.0
 30
0.0
  3
block 198
  1

  0
POLYLINE
  5
616
330
612
100
AcDbEntity
  8
interieur
370
     0
100
AcDb2dPolyline
 66
     1
 10
0.0
 20
0.0
 30
0.0
  0
VERTEX
  5
617
330
616
100
AcDbEntity
  8
interieur
370
     0
100
AcDbVertex
100
AcDb2dVertex
 10
112.2316171094915
 20
-155.8427215590855
 30
0.0
  0
VERTEX
  5
618
330
616
100
AcDbEntity
  8
interieur
370
     0
100
AcDbVertex
100
AcDb2dVertex
 10
117.2316171094914
 20
-155.8427215590855
 30
0.0
  0
SEQEND
  5
619
330
616
100
AcDbEntity
  8
interieur
370
     0
  0
ENDBLK
  5
615
330
612
100
AcDbEntity
  8
0
100
AcDbBlockEnd
  0
BLOCK
  5
61C
330
61A
100
AcDbEntity
  8
0
100
AcDbBlockBegin
  2
block 199
 70
     0
 10
0.0
 20
0.0
 30
0.0
  3
block 199
  1

  0
POLYLINE
  5
61E
330
61A
100
AcDbEntity
  8
interieur
370
     0
100
AcDb2dPolyline
 66
     1
 10
0.0
 20
0.0
 30
0.0
  0
VERTEX
  5
61F
330
61E
100
AcDbEntity
  8
interieur
370
     0
100
AcDbVertex
100
AcDb2dVertex
 10
112.2316171094915
 20
-140.8427215590856
 30
0.0
  0
VERTEX
  5
620
330
61E
100
AcDbEntity
  8
interieur
370
     0
100
AcDbVertex
100
AcDb2dVertex
 10
112.2316171094915
 20
-155.8427215590855
 30
0.0
  0
SEQEND
  5
621
330
61E
100
AcDbEntity
  8
interieur
370
     0
  0
ENDBLK
  5
61D
330
61A
100
AcDbEntity
  8
0
100
AcDbBlockEnd
  0
BLOCK
  5
624
330
622
100
AcDbEntity
  8
0
100
AcDbBlockBegin
  2
block 200
 70
     0
 10
0.0
 20
0.0
 30
0.0
  3
block 200
  1

  0
POLYLINE
  5
626
330
622
100
AcDbEntity
  8
interieur
370
     0
100
AcDb2dPolyline
 66
     1
 10
0.0
 20
0.0
 30
0.0
  0
VERTEX
  5
627
330
626
100
AcDbEntity
  8
interieur
370
     0
100
AcDbVertex
100
AcDb2dVertex
 10
117.1316171094914
 20
-140.8427215590856
 30
0.0
  0
VERTEX
  5
628
330
626
100
AcDbEntity
  8
interieur
370
     0
100
AcDbVertex
100
AcDb2dVertex
 10
112.2316171094915
 20
-140.8427215590856
 30
0.0
  0
SEQEND
  5
629
330
626
100
AcDbEntity
  8
interieur
370
     0
  0
ENDBLK
  5
625
330
622
100
AcDbEntity
  8
0
100
AcDbBlockEnd
  0
BLOCK
  5
62C
330
62A
100
AcDbEntity
  8
0
100
AcDbBlockBegin
  2
block 201
 70
     0
 10
0.0
 20
0.0
 30
0.0
  3
block 201
  1

  0
POLYLINE
  5
62E
330
62A
100
AcDbEntity
  8
interieur
370
     0
100
AcDb2dPolyline
 66
     1
 10
0.0
 20
0.0
 30
0.0
  0
VERTEX
  5
62F
330
62E
100
AcDbEntity
  8
interieur
370
     0
100
AcDbVertex
100
AcDb2dVertex
 10
134.1493721894914
 20
-175.3427215590852
 30
0.0
  0
VERTEX
  5
630
330
62E
100
AcDbEntity
  8
interieur
370
     0
100
AcDbVertex
100
AcDb2dVertex
 10
108.1493721894914
 20
-175.3427215590852
 30
0.0
  0
SEQEND
  5
631
330
62E
100
AcDbEntity
  8
interieur
370
     0
  0
ENDBLK
  5
62D
330
62A
100
AcDbEntity
  8
0
100
AcDbBlockEnd
  0
BLOCK
  5
634
330
632
100
AcDbEntity
  8
0
100
AcDbBlockBegin
  2
block 202
 70
     0
 10
0.0
 20
0.0
 30
0.0
  3
block 202
  1

  0
POLYLINE
  5
636
330
632
100
AcDbEntity
  8
interieur
370
     0
100
AcDb2dPolyline
 66
     1
 10
0.0
 20
0.0
 30
0.0
  0
VERTEX
  5
637
330
636
100
AcDbEntity
  8
interieur
370
     0
100
AcDbVertex
100
AcDb2dVertex
 10
134.1493721894914
 20
-180.3427215590854
 30
0.0
  0
VERTEX
  5
638
330
636
100
AcDbEntity
  8
interieur
370
     0
100
AcDbVertex
100
AcDb2dVertex
 10
134.1493721894914
 20
-175.3427215590852
 30
0.0
  0
SEQEND
  5
639
330
636
100
AcDbEntity
  8
interieur
370
     0
  0
ENDBLK
  5
635
330
632
100
AcDbEntity
  8
0
100
AcDbBlockEnd
  0
BLOCK
  5
63C
330
63A
100
AcDbEntity
  8
0
100
AcDbBlockBegin
  2
block 203
 70
     0
 10
0.0
 20
0.0
 30
0.0
  3
block 203
  1

  0
POLYLINE
  5
63E
330
63A
100
AcDbEntity
  8
interieur
370
     0
100
AcDb2dPolyline
 66
     1
 10
0.0
 20
0.0
 30
0.0
  0
VERTEX
  5
63F
330
63E
100
AcDbEntity
  8
interieur
370
     0
100
AcDbVertex
100
AcDb2dVertex
 10
108.1493721894914
 20
-180.3427215590854
 30
0.0
  0
VERTEX
  5
640
330
63E
100
AcDbEntity
  8
interieur
370
     0
100
AcDbVertex
100
AcDb2dVertex
 10
134.1493721894914
 20
-180.3427215590854
 30
0.0
  0
SEQEND
  5
641
330
63E
100
AcDbEntity
  8
interieur
370
     0
  0
ENDBLK
  5
63D
330
63A
100
AcDbEntity
  8
0
100
AcDbBlockEnd
  0
BLOCK
  5
644
330
642
100
AcDbEntity
  8
0
100
AcDbBlockBegin
  2
block 204
 70
     0
 10
0.0
 20
0.0
 30
0.0
  3
block 204
  1

  0
POLYLINE
  5
646
330
642
100
AcDbEntity
  8
interieur
370
     0
100
AcDb2dPolyline
 66
     1
 10
0.0
 20
0.0
 30
0.0
  0
VERTEX
  5
647
330
646
100
AcDbEntity
  8
interieur
370
     0
100
AcDbVertex
100
AcDb2dVertex
 10
108.1493721894914
 20
-175.3427215590852
 30
0.0
  0
VERTEX
  5
648
330
646
100
AcDbEntity
  8
interieur
370
     0
100
AcDbVertex
100
AcDb2dVertex
 10
108.1493721894914
 20
-180.3427215590854
 30
0.0
  0
SEQEND
  5
649
330
646
100
AcDbEntity
  8
interieur
370
     0
  0
ENDBLK
  5
645
330
642
100
AcDbEntity
  8
0
100
AcDbBlockEnd
  0
BLOCK
  5
64C
330
64A
100
AcDbEntity
  8
0
100
AcDbBlockBegin
  2
block 205
 70
     0
 10
0.0
 20
0.0
 30
0.0
  3
block 205
  1

  0
POLYLINE
  5
64E
330
64A
100
AcDbEntity
  8
interieur
370
     0
100
AcDb2dPolyline
 66
     1
 10
0.0
 20
0.0
 30
0.0
  0
VERTEX
  5
64F
330
64E
100
AcDbEntity
  8
interieur
370
     0
100
AcDbVertex
100
AcDb2dVertex
 10
108.1493721894914
 20
-121.3427215590859
 30
0.0
  0
VERTEX
  5
650
330
64E
100
AcDbEntity
  8
interieur
370
     0
100
AcDbVertex
100
AcDb2dVertex
 10
134.1493721894914
 20
-121.3427215590859
 30
0.0
  0
SEQEND
  5
651
330
64E
100
AcDbEntity
  8
interieur
370
     0
  0
ENDBLK
  5
64D
330
64A
100
AcDbEntity
  8
0
100
AcDbBlockEnd
  0
BLOCK
  5
654
330
652
100
AcDbEntity
  8
0
100
AcDbBlockBegin
  2
block 206
 70
     0
 10
0.0
 20
0.0
 30
0.0
  3
block 206
  1

  0
POLYLINE
  5
656
330
652
100
AcDbEntity
  8
interieur
370
     0
100
AcDb2dPolyline
 66
     1
 10
0.0
 20
0.0
 30
0.0
  0
VERTEX
  5
657
330
656
100
AcDbEntity
  8
interieur
370
     0
100
AcDbVertex
100
AcDb2dVertex
 10
108.1493721894914
 20
-116.3427215590854
 30
0.0
  0
VERTEX
  5
658
330
656
100
AcDbEntity
  8
interieur
370
     0
100
AcDbVertex
100
AcDb2dVertex
 10
108.1493721894914
 20
-121.3427215590859
 30
0.0
  0
SEQEND
  5
659
330
656
100
AcDbEntity
  8
interieur
370
     0
  0
ENDBLK
  5
655
330
652
100
AcDbEntity
  8
0
100
AcDbBlockEnd
  0
BLOCK
  5
65C
330
65A
100
AcDbEntity
  8
0
100
AcDbBlockBegin
  2
block 207
 70
     0
 10
0.0
 20
0.0
 30
0.0
  3
block 207
  1

  0
POLYLINE
  5
65E
330
65A
100
AcDbEntity
  8
interieur
370
     0
100
AcDb2dPolyline
 66
     1
 10
0.0
 20
0.0
 30
0.0
  0
VERTEX
  5
65F
330
65E
100
AcDbEntity
  8
interieur
370
     0
100
AcDbVertex
100
AcDb2dVertex
 10
134.1493721894914
 20
-116.3427215590854
 30
0.0
  0
VERTEX
  5
660
330
65E
100
AcDbEntity
  8
interieur
370
     0
100
AcDbVertex
100
AcDb2dVertex
 10
108.1493721894914
 20
-116.3427215590854
 30
0.0
  0
SEQEND
  5
661
330
65E
100
AcDbEntity
  8
interieur
370
     0
  0
ENDBLK
  5
65D
330
65A
100
AcDbEntity
  8
0
100
AcDbBlockEnd
  0
BLOCK
  5
664
330
662
100
AcDbEntity
  8
0
100
AcDbBlockBegin
  2
block 208
 70
     0
 10
0.0
 20
0.0
 30
0.0
  3
block 208
  1

  0
POLYLINE
  5
666
330
662
100
AcDbEntity
  8
interieur
370
     0
100
AcDb2dPolyline
 66
     1
 10
0.0
 20
0.0
 30
0.0
  0
VERTEX
  5
667
330
666
100
AcDbEntity
  8
interieur
370
     0
100
AcDbVertex
100
AcDb2dVertex
 10
134.1493721894914
 20
-121.3427215590859
 30
0.0
  0
VERTEX
  5
668
330
666
100
AcDbEntity
  8
interieur
370
     0
100
AcDbVertex
100
AcDb2dVertex
 10
134.1493721894914
 20
-116.3427215590854
 30
0.0
  0
SEQEND
  5
669
330
666
100
AcDbEntity
  8
interieur
370
     0
  0
ENDBLK
  5
665
330
662
100
AcDbEntity
  8
0
100
AcDbBlockEnd
  0
BLOCK
  5
66C
330
66A
100
AcDbEntity
  8
0
100
AcDbBlockBegin
  2
block 209
 70
     0
 10
0.0
 20
0.0
 30
0.0
  3
block 209
  1

  0
POLYLINE
  5
66E
330
66A
100
AcDbEntity
  8
interieur
370
     0
100
AcDb2dPolyline
 66
     1
 10
0.0
 20
0.0
 30
0.0
  0
VERTEX
  5
66F
330
66E
100
AcDbEntity
  8
interieur
370
     0
100
AcDbVertex
100
AcDb2dVertex
 10
98.63161710949137
 20
-140.8427215590856
 30
0.0
  0
VERTEX
  5
670
330
66E
100
AcDbEntity
  8
interieur
370
     0
100
AcDbVertex
100
AcDb2dVertex
 10
93.73161710949152
 20
-140.8427215590856
 30
0.0
  0
SEQEND
  5
671
330
66E
100
AcDbEntity
  8
interieur
370
     0
  0
ENDBLK
  5
66D
330
66A
100
AcDbEntity
  8
0
100
AcDbBlockEnd
  0
BLOCK
  5
674
330
672
100
AcDbEntity
  8
0
100
AcDbBlockBegin
  2
block 210
 70
     0
 10
0.0
 20
0.0
 30
0.0
  3
block 210
  1

  0
POLYLINE
  5
676
330
672
100
AcDbEntity
  8
interieur
370
     0
100
AcDb2dPolyline
 66
     1
 10
0.0
 20
0.0
 30
0.0
  0
VERTEX
  5
677
330
676
100
AcDbEntity
  8
interieur
370
     0
100
AcDbVertex
100
AcDb2dVertex
 10
98.73161710949138
 20
-148.3423882257856
 30
0.0
  0
VERTEX
  5
678
330
676
100
AcDbEntity
  8
interieur
370
     0
100
AcDbVertex
100
AcDb2dVertex
 10
98.63161710949137
 20
-140.8427215590856
 30
0.0
  0
SEQEND
  5
679
330
676
100
AcDbEntity
  8
interieur
370
     0
  0
ENDBLK
  5
675
330
672
100
AcDbEntity
  8
0
100
AcDbBlockEnd
  0
BLOCK
  5
67C
330
67A
100
AcDbEntity
  8
0
100
AcDbBlockBegin
  2
block 211
 70
     0
 10
0.0
 20
0.0
 30
0.0
  3
block 211
  1

  0
POLYLINE
  5
67E
330
67A
100
AcDbEntity
  8
interieur
370
     0
100
AcDb2dPolyline
 66
     1
 10
0.0
 20
0.0
 30
0.0
  0
VERTEX
  5
67F
330
67E
100
AcDbEntity
  8
interieur
370
     0
100
AcDbVertex
100
AcDb2dVertex
 10
98.73161710949138
 20
-155.8427215590855
 30
0.0
  0
VERTEX
  5
680
330
67E
100
AcDbEntity
  8
interieur
370
     0
100
AcDbVertex
100
AcDb2dVertex
 10
98.73161710949138
 20
-148.3423882257856
 30
0.0
  0
SEQEND
  5
681
330
67E
100
AcDbEntity
  8
interieur
370
     0
  0
ENDBLK
  5
67D
330
67A
100
AcDbEntity
  8
0
100
AcDbBlockEnd
  0
BLOCK
  5
684
330
682
100
AcDbEntity
  8
0
100
AcDbBlockBegin
  2
block 212
 70
     0
 10
0.0
 20
0.0
 30
0.0
  3
block 212
  1

  0
POLYLINE
  5
686
330
682
100
AcDbEntity
  8
interieur
370
     0
100
AcDb2dPolyline
 66
     1
 10
0.0
 20
0.0
 30
0.0
  0
VERTEX
  5
687
330
686
100
AcDbEntity
  8
interieur
370
     0
100
AcDbVertex
100
AcDb2dVertex
 10
93.73161710949152
 20
-155.8427215590855
 30
0.0
  0
VERTEX
  5
688
330
686
100
AcDbEntity
  8
interieur
370
     0
100
AcDbVertex
100
AcDb2dVertex
 10
98.73161710949138
 20
-155.8427215590855
 30
0.0
  0
SEQEND
  5
689
330
686
100
AcDbEntity
  8
interieur
370
     0
  0
ENDBLK
  5
685
330
682
100
AcDbEntity
  8
0
100
AcDbBlockEnd
  0
BLOCK
  5
68C
330
68A
100
AcDbEntity
  8
0
100
AcDbBlockBegin
  2
block 213
 70
     0
 10
0.0
 20
0.0
 30
0.0
  3
block 213
  1

  0
POLYLINE
  5
68E
330
68A
100
AcDbEntity
  8
interieur
370
     0
100
AcDb2dPolyline
 66
     1
 10
0.0
 20
0.0
 30
0.0
  0
VERTEX
  5
68F
330
68E
100
AcDbEntity
  8
interieur
370
     0
100
AcDbVertex
100
AcDb2dVertex
 10
93.73161710949152
 20
-140.8427215590856
 30
0.0
  0
VERTEX
  5
690
330
68E
100
AcDbEntity
  8
interieur
370
     0
100
AcDbVertex
100
AcDb2dVertex
 10
93.73161710949152
 20
-155.8427215590855
 30
0.0
  0
SEQEND
  5
691
330
68E
100
AcDbEntity
  8
interieur
370
     0
  0
ENDBLK
  5
68D
330
68A
100
AcDbEntity
  8
0
100
AcDbBlockEnd
  0
BLOCK
  5
695
330
693
100
AcDbEntity
  8
0
100
AcDbBlockBegin
  2
block 214
 70
     0
 10
0.0
 20
0.0
 30
0.0
  3
block 214
  1

  0
SPLINE
  5
697
330
693
100
AcDbEntity
  8
Gravure
370
     0
100
AcDbSpline
210
0.0
220
0.0
230
1.0
 70
    11
 71
     3
 72
    44
 73
    40
 74
     0
 42
0.0000000001
 43
0.0000000001
 12
1.0
 22
0.0
 32
0.0
 13
1.0
 23
0.0
 33
0.0
 40
0.0
 40
0.0
 40
0.0
 40
0.0
 40
1.0
 40
1.0
 40
1.0
 40
2.0
 40
2.0
 40
2.0
 40
3.0
 40
3.0
 40
3.0
 40
4.0
 40
4.0
 40
4.0
 40
5.0
 40
5.0
 40
5.0
 40
6.0
 40
6.0
 40
6.0
 40
7.0
 40
7.0
 40
7.0
 40
8.0
 40
8.0
 40
8.0
 40
9.0
 40
9.0
 40
9.0
 40
10.0
 40
10.0
 40
10.0
 40
11.0
 40
11.0
 40
11.0
 40
12.0
 40
12.0
 40
12.0
 40
13.0
 40
13.0
 40
13.0
 40
13.0
 10
277.341026186852
 20
-160.3556050594101
 30
0.0
 10
277.3411374430779
 20
-160.4277666413321
 30
0.0
 10
277.3206189756024
 20
-160.4986167724296
 30
0.0
 10
277.2788276447806
 20
-160.5619779672756
 30
0.0
 10
277.2788276447806
 20
-160.5619779672756
 30
0.0
 10
274.9075738347078
 20
-164.1345078040212
 30
0.0
 10
274.9075738347078
 20
-164.1345078040212
 30
0.0
 10
274.7944187504193
 20
-164.3044911887851
 30
0.0
 10
274.5641358816988
 20
-164.3508889497199
 30
0.0
 10
274.3934484771975
 20
-164.2377349537306
 30
0.0
 10
274.222761072702
 20
-164.1245809577418
 30
0.0
 10
274.1763623337279
 20
-163.8936644809521
 30
0.0
 10
274.2895163325889
 20
-163.7229770807565
 30
0.0
 10
274.2895163325889
 20
-163.7229770807565
 30
0.0
 10
276.5228898310488
 20
-160.3568664336945
 30
0.0
 10
276.5228898310488
 20
-160.3568664336945
 30
0.0
 10
276.5228898310488
 20
-160.3568664336945
 30
0.0
 10
275.5802173557314
 20
-158.9454982834158
 30
0.0
 10
275.5802173557314
 20
-158.9454982834158
 30
0.0
 10
275.5802173557314
 20
-158.9454982834158
 30
0.0
 10
271.0267862206674
 20
-158.9525186057627
 30
0.0
 10
271.0267862206674
 20
-158.9525186057627
 30
0.0
 10
270.8219177243781
 20
-158.9528344649122
 30
0.0
 10
270.6553033638434
 20
-158.7873657182061
 30
0.0
 10
270.654986419278
 20
-158.5817932116573
 30
0.0
 10
270.6546705601356
 20
-158.3769247205427
 30
0.0
 10
270.8207740103682
 20
-158.2110134027561
 30
0.0
 10
271.0256425066574
 20
-158.2106975436079
 30
0.0
 10
271.0256425066574
 20
-158.2106975436079
 30
0.0
 10
275.7784508174931
 20
-158.2033698284384
 30
0.0
 10
275.7784508174931
 20
-158.2033698284384
 30
0.0
 10
275.9022167338081
 20
-158.2031790104371
 30
0.0
 10
276.0177705682551
 20
-158.264813555521
 30
0.0
 10
276.0874159082812
 20
-158.3678446849031
 30
0.0
 10
276.0874159082812
 20
-158.3678446849031
 30
0.0
 10
277.2781926702183
 20
-160.1501289387458
 30
0.0
 10
277.2781926702183
 20
-160.1501289387458
 30
0.0
 10
277.3201780839888
 20
-160.2126513278901
 30
0.0
 10
277.3409169929364
 20
-160.2847811068112
 30
0.0
 10
277.341026186852
 20
-160.3556050594101
 30
0.0
  0
SPLINE
  5
698
330
693
100
AcDbEntity
  8
Gravure
370
     0
100
AcDbSpline
210
0.0
220
0.0
230
1.0
 70
    11
 71
     3
 72
    44
 73
    40
 74
     0
 42
0.0000000001
 43
0.0000000001
 12
1.0
 22
0.0
 32
0.0
 13
1.0
 23
0.0
 33
0.0
 40
0.0
 40
0.0
 40
0.0
 40
0.0
 40
1.0
 40
1.0
 40
1.0
 40
2.0
 40
2.0
 40
2.0
 40
3.0
 40
3.0
 40
3.0
 40
4.0
 40
4.0
 40
4.0
 40
5.0
 40
5.0
 40
5.0
 40
6.0
 40
6.0
 40
6.0
 40
7.0
 40
7.0
 40
7.0
 40
8.0
 40
8.0
 40
8.0
 40
9.0
 40
9.0
 40
9.0
 40
10.0
 40
10.0
 40
10.0
 40
11.0
 40
11.0
 40
11.0
 40
12.0
 40
12.0
 40
12.0
 40
13.0
 40
13.0
 40
13.0
 40
13.0
 10
273.7852010064757
 20
-165.7140813794451
 30
0.0
 10
273.785310191926
 20
-165.7848998409477
 30
0.0
 10
273.7647928270133
 20
-165.8564651030755
 30
0.0
 10
273.7230002935513
 20
-165.9190462564428
 30
0.0
 10
273.7230002935513
 20
-165.9190462564428
 30
0.0
 10
271.3517465920206
 20
-169.4916464947338
 30
0.0
 10
271.3517465920206
 20
-169.4916464947338
 30
0.0
 10
271.2831242743218
 20
-169.5955244157947
 30
0.0
 10
271.1677611493301
 20
-169.657585382356
 30
0.0
 10
271.043291217563
 20
-169.6577772857835
 30
0.0
 10
271.043291217563
 20
-169.6577772857835
 30
0.0
 10
268.6672390698716
 20
-169.6614406006552
 30
0.0
 10
268.6672390698716
 20
-169.6614406006552
 30
0.0
 10
268.5428395396485
 20
-169.66163239554
 30
0.0
 10
268.4272151951173
 20
-169.5999275574573
 30
0.0
 10
268.3582728936553
 20
-169.4962617287569
 30
0.0
 10
268.3582728936553
 20
-169.4962617287569
 30
0.0
 10
265.9767182843529
 20
-165.9309892056355
 30
0.0
 10
265.9767182843529
 20
-165.9309892056355
 30
0.0
 10
265.8637436057223
 20
-165.7613544599074
 30
0.0
 10
265.9080913729765
 20
-165.5295940561899
 30
0.0
 10
266.079063743877
 20
-165.4166118173924
 30
0.0
 10
266.2494013238626
 20
-165.3028671399007
 30
0.0
 10
266.4804598888346
 20
-165.3486240223117
 30
0.0
 10
266.5935059458914
 20
-165.5188922733865
 30
0.0
 10
266.5935059458914
 20
-165.5188922733865
 30
0.0
 10
268.8654704693217
 20
-168.9179745163547
 30
0.0
 10
268.8654704693217
 20
-168.9179745163547
 30
0.0
 10
268.8654704693217
 20
-168.9179745163547
 30
0.0
 10
270.8434722809226
 20
-168.9149249017001
 30
0.0
 10
270.8434722809226
 20
-168.9149249017001
 30
0.0
 10
270.8434722809226
 20
-168.9149249017001
 30
0.0
 10
273.1042408382918
 20
-165.5088542479268
 30
0.0
 10
273.1042408382918
 20
-165.5088542479268
 30
0.0
 10
273.2180989611452
 20
-165.3382361638497
 30
0.0
 10
273.4476777058746
 20
-165.2917690867958
 30
0.0
 10
273.6190692258857
 20
-165.4049868982011
 30
0.0
 10
273.7271049738305
 20
-165.4762835694879
 30
0.0
 10
273.7850144216417
 20
-165.5930611264453
 30
0.0
 10
273.7852010064757
 20
-165.7140813794451
 30
0.0
  0
SPLINE
  5
699
330
693
100
AcDbEntity
  8
Gravure
370
     0
100
AcDbSpline
210
0.0
220
0.0
230
1.0
 70
    11
 71
     3
 72
    41
 73
    37
 74
     0
 42
0.0000000001
 43
0.0000000001
 12
1.0
 22
0.0
 32
0.0
 13
1.0
 23
0.0
 33
0.0
 40
0.0
 40
0.0
 40
0.0
 40
0.0
 40
1.0
 40
1.0
 40
1.0
 40
2.0
 40
2.0
 40
2.0
 40
3.0
 40
3.0
 40
3.0
 40
4.0
 40
4.0
 40
4.0
 40
5.0
 40
5.0
 40
5.0
 40
6.0
 40
6.0
 40
6.0
 40
7.0
 40
7.0
 40
7.0
 40
8.0
 40
8.0
 40
8.0
 40
9.0
 40
9.0
 40
9.0
 40
10.0
 40
10.0
 40
10.0
 40
11.0
 40
11.0
 40
11.0
 40
12.0
 40
12.0
 40
12.0
 40
12.0
 10
269.0220929818373
 20
-158.5843107501792
 30
0.0
 10
269.0224099264079
 20
-158.7898832567261
 30
0.0
 10
268.8563065847186
 20
-158.9558649760567
 30
0.0
 10
268.6507340729759
 20
-158.9561819206337
 30
0.0
 10
268.6507340729759
 20
-158.9561819206337
 30
0.0
 10
264.0973029379106
 20
-158.96320224298
 30
0.0
 10
264.0973029379106
 20
-158.96320224298
 30
0.0
 10
264.0973029379106
 20
-158.96320224298
 30
0.0
 10
263.1589869308004
 20
-160.3774704361278
 30
0.0
 10
263.1589869308004
 20
-160.3774704361278
 30
0.0
 10
263.1589869308004
 20
-160.3774704361278
 30
0.0
 10
265.4027292924944
 20
-163.7366784210872
 30
0.0
 10
265.4027292924944
 20
-163.7366784210872
 30
0.0
 10
265.5171130874517
 20
-163.9070150113951
 30
0.0
 10
265.4720591338923
 20
-164.137368469673
 30
0.0
 10
265.3003849099159
 20
-164.2517543240651
 30
0.0
 10
265.1300472298663
 20
-164.3654341007128
 30
0.0
 10
264.8996927888912
 20
-164.3197465344177
 30
0.0
 10
264.7859436932657
 20
-164.1501129826586
 30
0.0
 10
264.7859436932657
 20
-164.1501129826586
 30
0.0
 10
262.4037555786005
 20
-160.5849118379647
 30
0.0
 10
262.4037555786005
 20
-160.5849118379647
 30
0.0
 10
262.3203479634224
 20
-160.4598661913365
 30
0.0
 10
262.3200988580159
 20
-160.298294649376
 30
0.0
 10
262.4031206040382
 20
-160.1730628094375
 30
0.0
 10
262.4031206040382
 20
-160.1730628094375
 30
0.0
 10
263.5883959897906
 20
-158.3871152407225
 30
0.0
 10
263.5883959897906
 20
-158.3871152407225
 30
0.0
 10
263.6569488828288
 20
-158.2838710420925
 30
0.0
 10
263.7730865333613
 20
-158.2218792831051
 30
0.0
 10
263.8981900790328
 20
-158.2216864027928
 30
0.0
 10
263.8981900790328
 20
-158.2216864027928
 30
0.0
 10
268.6495903589654
 20
-158.2143608584783
 30
0.0
 10
268.6495903589654
 20
-158.2143608584783
 30
0.0
 10
268.8551628707081
 20
-158.2140439139025
 30
0.0
 10
269.0217771226993
 20
-158.3794422590653
 30
0.0
 10
269.0220929818373
 20
-158.5843107501792
 30
0.0
  0
POLYLINE
  5
69A
330
693
100
AcDbEntity
  8
Gravure
370
     0
100
AcDb2dPolyline
 66
     1
 10
0.0
 20
0.0
 30
0.0
  0
VERTEX
  5
69B
330
69A
100
AcDbEntity
  8
Gravure
370
     0
100
AcDbVertex
100
AcDb2dVertex
 10
267.4710916248701
 20
-163.9390624869148
 30
0.0
  0
VERTEX
  5
69C
330
69A
100
AcDbEntity
  8
Gravure
370
     0
100
AcDbVertex
100
AcDb2dVertex
 10
269.8409383809265
 20
-160.3671684349111
 30
0.0
  0
VERTEX
  5
69D
330
69A
100
AcDbEntity
  8
Gravure
370
     0
100
AcDbVertex
100
AcDb2dVertex
 10
272.2224919047995
 20
-163.9317369425977
 30
0.0
  0
VERTEX
  5
69E
330
69A
100
AcDbEntity
  8
Gravure
370
     0
100
AcDbVertex
100
AcDb2dVertex
 10
267.4710916248701
 20
-163.9390624869148
 30
0.0
  0
SEQEND
  5
69F
330
69A
100
AcDbEntity
  8
Gravure
370
     0
  0
INSERT
  5
6A1
330
693
100
AcDbEntity
  8
Gravure
100
AcDbBlockReference
  2
block 215
 10
0.0
 20
0.0
 30
0.0
  0
INSERT
  5
6C1
330
693
100
AcDbEntity
  8
Gravure
100
AcDbBlockReference
  2
block 216
 10
0.0
 20
0.0
 30
0.0
  0
ENDBLK
  5
696
330
693
100
AcDbEntity
  8
0
100
AcDbBlockEnd
  0
BLOCK
  5
6A2
330
6A0
100
AcDbEntity
  8
0
100
AcDbBlockBegin
  2
block 215
 70
     0
 10
0.0
 20
0.0
 30
0.0
  3
block 215
  1

  0
SPLINE
  5
6A4
330
6A0
100
AcDbEntity
  8
Gravure
370
     0
100
AcDbSpline
210
0.0
220
0.0
230
1.0
 70
    11
 71
     3
 72
    44
 73
    40
 74
     0
 42
0.0000000001
 43
0.0000000001
 12
1.0
 22
0.0
 32
0.0
 13
1.0
 23
0.0
 33
0.0
 40
0.0
 40
0.0
 40
0.0
 40
0.0
 40
1.0
 40
1.0
 40
1.0
 40
2.0
 40
2.0
 40
2.0
 40
3.0
 40
3.0
 40
3.0
 40
4.0
 40
4.0
 40
4.0
 40
5.0
 40
5.0
 40
5.0
 40
6.0
 40
6.0
 40
6.0
 40
7.0
 40
7.0
 40
7.0
 40
8.0
 40
8.0
 40
8.0
 40
9.0
 40
9.0
 40
9.0
 40
10.0
 40
10.0
 40
10.0
 40
11.0
 40
11.0
 40
11.0
 40
12.0
 40
12.0
 40
12.0
 40
13.0
 40
13.0
 40
13.0
 40
13.0
 10
271.6553107398268
 20
-143.8694614899696
 30
0.0
 10
271.6553107398268
 20
-143.8694614899696
 30
0.0
 10
270.8089433644336
 20
-143.8707663898625
 30
0.0
 10
270.8089433644336
 20
-143.8707663898625
 30
0.0
 10
271.1543585367398
 20
-144.0235627256416
 30
0.0
 10
271.4159494094678
 20
-144.2376794673066
 30
0.0
 10
271.5937148692483
 20
-144.5123944766187
 30
0.0
 10
271.7715507305723
 20
-144.7871093773877
 30
0.0
 10
271.8607559736561
 20
-145.1108197129885
 30
0.0
 10
271.8613294045293
 20
-145.4827510664442
 30
0.0
 10
271.8623554582961
 20
-146.148256855622
 30
0.0
 10
271.6348679546132
 20
-146.683519785761
 30
0.0
 10
271.1797137743324
 20
-147.0898761836759
 30
0.0
 10
270.724489083968
 20
-147.4961622885896
 30
0.0
 10
270.1225154914728
 20
-147.699213701994
 30
0.0
 10
269.3738654606973
 20
-147.7003679446719
 30
0.0
 10
268.6326779937104
 20
-147.7015106818265
 30
0.0
 10
268.0274101237079
 20
-147.5030662181941
 30
0.0
 10
267.5585525991967
 20
-147.1036961646529
 30
0.0
 10
267.089061352241
 20
-146.7042566864524
 30
0.0
 10
266.8545301082742
 20
-146.1869544999264
 30
0.0
 10
266.8535537577916
 20
-145.55368661515
 30
0.0
 10
266.8529464708623
 20
-145.1597959826209
 30
0.0
 10
266.9383147991411
 20
-144.8213781238863
 30
0.0
 10
267.1105016445005
 20
-144.5371885739386
 30
0.0
 10
267.2826180790342
 20
-144.2529931115889
 30
0.0
 10
267.5353020363723
 20
-144.0325981863265
 30
0.0
 10
267.8691860449909
 20
-143.8752988058338
 30
0.0
 10
267.8691860449909
 20
-143.8752988058338
 30
0.0
 10
263.5611746962029
 20
-143.881940748459
 30
0.0
 10
263.5611746962029
 20
-143.881940748459
 30
0.0
 10
263.5611746962029
 20
-143.881940748459
 30
0.0
 10
263.5601688313736
 20
-143.2295296463434
 30
0.0
 10
263.5601688313736
 20
-143.2295296463434
 30
0.0
 10
263.5601688313736
 20
-143.2295296463434
 30
0.0
 10
271.6543048749962
 20
-143.217050387853
 30
0.0
 10
271.6543048749962
 20
-143.217050387853
 30
0.0
 10
271.6543048749962
 20
-143.217050387853
 30
0.0
 10
271.6553107398268
 20
-143.8694614899696
 30
0.0
 10
271.6553107398268
 20
-143.8694614899696
 30
0.0
  0
SPLINE
  5
6A5
330
6A0
100
AcDbEntity
  8
Gravure
370
     0
100
AcDbSpline
210
0.0
220
0.0
230
1.0
 70
    11
 71
     3
 72
    29
 73
    25
 74
     0
 42
0.0000000001
 43
0.0000000001
 12
1.0
 22
0.0
 32
0.0
 13
1.0
 23
0.0
 33
0.0
 40
0.0
 40
0.0
 40
0.0
 40
0.0
 40
1.0
 40
1.0
 40
1.0
 40
2.0
 40
2.0
 40
2.0
 40
3.0
 40
3.0
 40
3.0
 40
4.0
 40
4.0
 40
4.0
 40
5.0
 40
5.0
 40
5.0
 40
6.0
 40
6.0
 40
6.0
 40
7.0
 40
7.0
 40
7.0
 40
8.0
 40
8.0
 40
8.0
 40
8.0
 10
269.3940254534969
 20
-146.9860411060775
 30
0.0
 10
269.9928609962595
 20
-146.9851178421866
 30
0.0
 10
270.4532905553078
 20
-146.8496590935944
 30
0.0
 10
270.7774250915631
 20
-146.578957588586
 30
0.0
 10
271.100786296253
 20
-146.3089612929806
 30
0.0
 10
271.2617620516353
 20
-145.9222781161859
 30
0.0
 10
271.2609893364384
 20
-145.42108952916
 30
0.0
 10
271.2602441910784
 20
-144.9377829341427
 30
0.0
 10
271.0829480116172
 20
-144.5564790113329
 30
0.0
 10
270.7291722850304
 20
-144.2778816676209
 30
0.0
 10
270.3753272423218
 20
-143.9999884478862
 30
0.0
 10
269.8890619055949
 20
-143.8625395968575
 30
0.0
 10
269.2688946946597
 20
-143.8634957491743
 30
0.0
 10
268.7010358317485
 20
-143.8643712542924
 30
0.0
 10
268.2557458611798
 20
-144.0019187125131
 30
0.0
 10
267.9302810764655
 20
-144.2774095847785
 30
0.0
 10
267.6048162917473
 20
-144.5529004570442
 30
0.0
 10
267.4431269691617
 20
-144.933389383452
 30
0.0
 10
267.443872114521
 20
-145.4166959784696
 30
0.0
 10
267.4446183453124
 20
-145.9007065889214
 30
0.0
 10
267.6184669113729
 20
-146.2833534596441
 30
0.0
 10
267.9647139057958
 20
-146.564708077611
 30
0.0
 10
268.3123700165486
 20
-146.8467645401577
 30
0.0
 10
268.7883609608558
 20
-146.9869748986056
 30
0.0
 10
269.3940254534969
 20
-146.9860411060775
 30
0.0
  0
SPLINE
  5
6A6
330
6A0
100
AcDbEntity
  8
Gravure
370
     0
100
AcDbSpline
210
0.0
220
0.0
230
1.0
 70
    11
 71
     3
 72
    50
 73
    46
 74
     0
 42
0.0000000001
 43
0.0000000001
 12
1.0
 22
0.0
 32
0.0
 13
1.0
 23
0.0
 33
0.0
 40
0.0
 40
0.0
 40
0.0
 40
0.0
 40
1.0
 40
1.0
 40
1.0
 40
2.0
 40
2.0
 40
2.0
 40
3.0
 40
3.0
 40
3.0
 40
4.0
 40
4.0
 40
4.0
 40
5.0
 40
5.0
 40
5.0
 40
6.0
 40
6.0
 40
6.0
 40
7.0
 40
7.0
 40
7.0
 40
8.0
 40
8.0
 40
8.0
 40
9.0
 40
9.0
 40
9.0
 40
10.0
 40
10.0
 40
10.0
 40
11.0
 40
11.0
 40
11.0
 40
12.0
 40
12.0
 40
12.0
 40
13.0
 40
13.0
 40
13.0
 40
14.0
 40
14.0
 40
14.0
 40
15.0
 40
15.0
 40
15.0
 40
15.0
 10
269.3478498201766
 20
-137.5389067411664
 30
0.0
 10
269.3478498201766
 20
-137.5389067411664
 30
0.0
 10
269.3535271440135
 20
-141.2212594654761
 30
0.0
 10
269.3535271440135
 20
-141.2212594654761
 30
0.0
 10
269.9523351169418
 20
-141.2024542095776
 30
0.0
 10
270.4223863509981
 20
-141.0518442588235
 30
0.0
 10
270.7629064291892
 20
-140.76943080718
 30
0.0
 10
271.103496908922
 20
-140.4870172469947
 30
0.0
 10
271.273427553996
 20
-140.1093316828287
 30
0.0
 10
271.2726972789781
 20
-139.6356700992492
 30
0.0
 10
271.2721704129071
 20
-139.2939410078845
 30
0.0
 10
271.1796230172458
 20
-138.9943132101536
 30
0.0
 10
270.9949153743355
 20
-138.7374909385732
 30
0.0
 10
270.8095741079904
 20
-138.4806634629028
 30
0.0
 10
270.5308052771003
 20
-138.2665854275568
 30
0.0
 10
270.1579070084734
 20
-138.0966474059056
 30
0.0
 10
270.1579070084734
 20
-138.0966474059056
 30
0.0
 10
270.4815475670856
 20
-137.5055484771644
 30
0.0
 10
270.4815475670856
 20
-137.5055484771644
 30
0.0
 10
270.9507875377848
 20
-137.742008382537
 30
0.0
 10
271.2977512471521
 20
-138.0315988956481
 30
0.0
 10
271.5196226333825
 20
-138.3743243582029
 30
0.0
 10
271.7401543279443
 20
-138.7157142537457
 30
0.0
 10
271.8515456947746
 20
-139.1369671545609
 30
0.0
 10
271.8523131999239
 20
-139.6347764675049
 30
0.0
 10
271.8533604195085
 20
-140.3140105576341
 30
0.0
 10
271.6273031979752
 20
-140.8637036333046
 30
0.0
 10
271.1735056420206
 20
-141.2823782389925
 30
0.0
 10
270.7203449562484
 20
-141.703163914097
 30
0.0
 10
270.1239447990272
 20
-141.9138040250394
 30
0.0
 10
269.3862070077506
 20
-141.9149414436035
 30
0.0
 10
268.6265039343921
 20
-141.9161127274785
 30
0.0
 10
268.0143239049275
 20
-141.7093715136679
 30
0.0
 10
267.5475529286516
 20
-141.2934599406796
 30
0.0
 10
267.0793749974948
 20
-140.8782484544612
 30
0.0
 10
266.8455074901956
 20
-140.3348200756416
 30
0.0
 10
266.8444708087043
 20
-139.6624210695063
 30
0.0
 10
266.8434839388397
 20
-139.022330237474
 30
0.0
 10
267.0578403274377
 20
-138.5091232878766
 30
0.0
 10
267.4869745912864
 20
-138.1213930581892
 30
0.0
 10
267.9160395390152
 20
-137.7343669524778
 30
0.0
 10
268.4898661898421
 20
-137.540229550598
 30
0.0
 10
269.2069059268561
 20
-137.5391240435771
 30
0.0
 10
269.2069059268561
 20
-137.5391240435771
 30
0.0
 10
269.3478498201766
 20
-137.5389067411664
 30
0.0
 10
269.3478498201766
 20
-137.5389067411664
 30
0.0
  0
SPLINE
  5
6A7
330
6A0
100
AcDbEntity
  8
Gravure
370
     0
100
AcDbSpline
210
0.0
220
0.0
230
1.0
 70
    11
 71
     3
 72
    20
 73
    16
 74
     0
 42
0.0000000001
 43
0.0000000001
 12
1.0
 22
0.0
 32
0.0
 13
1.0
 23
0.0
 33
0.0
 40
0.0
 40
0.0
 40
0.0
 40
0.0
 40
1.0
 40
1.0
 40
1.0
 40
2.0
 40
2.0
 40
2.0
 40
3.0
 40
3.0
 40
3.0
 40
4.0
 40
4.0
 40
4.0
 40
5.0
 40
5.0
 40
5.0
 40
5.0
 10
268.8010901115446
 20
-138.3022002430652
 30
0.0
 10
268.3762656309614
 20
-138.3345359925382
 30
0.0
 10
268.0478485207627
 20
-138.4759865594513
 30
0.0
 10
267.8145001747042
 20
-138.7259203922262
 30
0.0
 10
267.5810845748369
 20
-138.9778959783002
 30
0.0
 10
267.465445635187
 20
-139.3176921187581
 30
0.0
 10
267.4661059992494
 20
-139.7460089592897
 30
0.0
 10
267.4667059240118
 20
-140.1351244384589
 30
0.0
 10
267.5888633233762
 20
-140.4615296362836
 30
0.0
 10
267.8326474143942
 20
-140.7244561763837
 30
0.0
 10
268.077134543979
 20
-140.9867480171668
 30
0.0
 10
268.4019199020286
 20
-141.1381741660147
 30
0.0
 10
268.8055262500642
 20
-141.1795113193014
 30
0.0
 10
268.8055262500642
 20
-141.1795113193014
 30
0.0
 10
268.8010901115446
 20
-138.3022002430652
 30
0.0
 10
268.8010901115446
 20
-138.3022002430652
 30
0.0
  0
POLYLINE
  5
6A8
330
6A0
100
AcDbEntity
  8
Gravure
370
     0
100
AcDb2dPolyline
 66
     1
 10
0.0
 20
0.0
 30
0.0
  0
VERTEX
  5
6A9
330
6A8
100
AcDbEntity
  8
Gravure
370
     0
100
AcDbVertex
100
AcDb2dVertex
 10
271.642396876842
 20
-135.4934378712955
 30
0.0
  0
VERTEX
  5
6AA
330
6A8
100
AcDbEntity
  8
Gravure
370
     0
100
AcDbVertex
100
AcDb2dVertex
 10
271.6434197828704
 20
-136.1569020157148
 30
0.0
  0
VERTEX
  5
6AB
330
6A8
100
AcDbEntity
  8
Gravure
370
     0
100
AcDbVertex
100
AcDb2dVertex
 10
263.5492837392471
 20
-136.1693812742045
 30
0.0
  0
VERTEX
  5
6AC
330
6A8
100
AcDbEntity
  8
Gravure
370
     0
100
AcDbVertex
100
AcDb2dVertex
 10
263.5482608332182
 20
-135.5059171297848
 30
0.0
  0
VERTEX
  5
6AD
330
6A8
100
AcDbEntity
  8
Gravure
370
     0
100
AcDbVertex
100
AcDb2dVertex
 10
271.642396876842
 20
-135.4934378712955
 30
0.0
  0
SEQEND
  5
6AE
330
6A8
100
AcDbEntity
  8
Gravure
370
     0
  0
POLYLINE
  5
6AF
330
6A0
100
AcDbEntity
  8
Gravure
370
     0
100
AcDb2dPolyline
 66
     1
 10
0.0
 20
0.0
 30
0.0
  0
VERTEX
  5
6B0
330
6AF
100
AcDbEntity
  8
Gravure
370
     0
100
AcDbVertex
100
AcDb2dVertex
 10
267.5556302199949
 20
-133.6098047831645
 30
0.0
  0
VERTEX
  5
6B1
330
6AF
100
AcDbEntity
  8
Gravure
370
     0
100
AcDbVertex
100
AcDb2dVertex
 10
267.5569434776417
 20
-134.4615930560155
 30
0.0
  0
VERTEX
  5
6B2
330
6AF
100
AcDbEntity
  8
Gravure
370
     0
100
AcDbVertex
100
AcDb2dVertex
 10
267.0090082519962
 20
-134.4624378435598
 30
0.0
  0
VERTEX
  5
6B3
330
6AF
100
AcDbEntity
  8
Gravure
370
     0
100
AcDbVertex
100
AcDb2dVertex
 10
267.0076949943533
 20
-133.6106495707092
 30
0.0
  0
VERTEX
  5
6B4
330
6AF
100
AcDbEntity
  8
Gravure
370
     0
100
AcDbVertex
100
AcDb2dVertex
 10
265.1074164885604
 20
-133.6135793542647
 30
0.0
  0
VERTEX
  5
6B5
330
6AF
100
AcDbEntity
  8
Gravure
370
     0
100
AcDbVertex
100
AcDb2dVertex
 10
265.1064434036116
 20
-132.9824295182379
 30
0.0
  0
VERTEX
  5
6B6
330
6AF
100
AcDbEntity
  8
Gravure
370
     0
100
AcDbVertex
100
AcDb2dVertex
 10
267.0067219094053
 20
-132.9794997346818
 30
0.0
  0
VERTEX
  5
6B7
330
6AF
100
AcDbEntity
  8
Gravure
370
     0
100
AcDbVertex
100
AcDb2dVertex
 10
267.0052877352367
 20
-132.0492841425526
 30
0.0
  0
VERTEX
  5
6B8
330
6AF
100
AcDbEntity
  8
Gravure
370
     0
100
AcDbVertex
100
AcDb2dVertex
 10
267.5532229608816
 20
-132.048439355008
 30
0.0
  0
VERTEX
  5
6B9
330
6AF
100
AcDbEntity
  8
Gravure
370
     0
100
AcDbVertex
100
AcDb2dVertex
 10
267.5546571350488
 20
-132.9786549471362
 30
0.0
  0
VERTEX
  5
6BA
330
6AF
100
AcDbEntity
  8
Gravure
370
     0
100
AcDbVertex
100
AcDb2dVertex
 10
271.6385099641841
 20
-132.9723586043504
 30
0.0
  0
VERTEX
  5
6BB
330
6AF
100
AcDbEntity
  8
Gravure
370
     0
100
AcDbVertex
100
AcDb2dVertex
 10
271.6394830491316
 20
-133.6035084403791
 30
0.0
  0
VERTEX
  5
6BC
330
6AF
100
AcDbEntity
  8
Gravure
370
     0
100
AcDbVertex
100
AcDb2dVertex
 10
267.5556302199949
 20
-133.6098047831645
 30
0.0
  0
SEQEND
  5
6BD
330
6AF
100
AcDbEntity
  8
Gravure
370
     0
  0
SPLINE
  5
6BE
330
6A0
100
AcDbEntity
  8
Gravure
370
     0
100
AcDbSpline
210
0.0
220
0.0
230
1.0
 70
    11
 71
     3
 72
    44
 73
    40
 74
     0
 42
0.0000000001
 43
0.0000000001
 12
1.0
 22
0.0
 32
0.0
 13
1.0
 23
0.0
 33
0.0
 40
0.0
 40
0.0
 40
0.0
 40
0.0
 40
1.0
 40
1.0
 40
1.0
 40
2.0
 40
2.0
 40
2.0
 40
3.0
 40
3.0
 40
3.0
 40
4.0
 40
4.0
 40
4.0
 40
5.0
 40
5.0
 40
5.0
 40
6.0
 40
6.0
 40
6.0
 40
7.0
 40
7.0
 40
7.0
 40
8.0
 40
8.0
 40
8.0
 40
9.0
 40
9.0
 40
9.0
 40
10.0
 40
10.0
 40
10.0
 40
11.0
 40
11.0
 40
11.0
 40
12.0
 40
12.0
 40
12.0
 40
13.0
 40
13.0
 40
13.0
 40
13.0
 10
271.6303289953481
 20
-127.6661238813997
 30
0.0
 10
271.6303289953481
 20
-127.6661238813997
 30
0.0
 10
270.7839616199556
 20
-127.6674287812919
 30
0.0
 10
270.7839616199556
 20
-127.6674287812919
 30
0.0
 10
271.1259281027505
 20
-127.8208700904873
 30
0.0
 10
271.3868138553478
 20
-128.0342714163626
 30
0.0
 10
271.5659895268193
 20
-128.3103987305365
 30
0.0
 10
271.7451662737828
 20
-128.5872236152948
 30
0.0
 10
271.8357836624863
 20
-128.9136006160715
 30
0.0
 10
271.8363635072794
 20
-129.2896920832026
 30
0.0
 10
271.8373895610475
 20
-129.9551978723791
 30
0.0
 10
271.6099020573646
 20
-130.4904608025197
 30
0.0
 10
271.1547478770838
 20
-130.8968172004334
 30
0.0
 10
270.6995222098359
 20
-131.3024696914572
 30
0.0
 10
270.0975497027637
 20
-131.5062251202964
 30
0.0
 10
269.3488996719928
 20
-131.5073793629727
 30
0.0
 10
268.6077122050014
 20
-131.508522100127
 30
0.0
 10
268.0024432495732
 20
-131.3093736210604
 30
0.0
 10
267.5335856165225
 20
-130.9099331659777
 30
0.0
 10
267.0640933926808
 20
-130.5098600738871
 30
0.0
 10
266.8295642110218
 20
-129.9938955166841
 30
0.0
 10
266.8285868929122
 20
-129.3600000204663
 30
0.0
 10
266.8279794881856
 20
-128.9660329839454
 30
0.0
 10
266.9133457634362
 20
-128.6262835168318
 30
0.0
 10
267.0855272809237
 20
-128.338638270316
 30
0.0
 10
267.2576394822909
 20
-128.0516971477759
 30
0.0
 10
267.5103201833516
 20
-127.8291901762131
 30
0.0
 10
267.8442043005116
 20
-127.6719611972642
 30
0.0
 10
267.8442043005116
 20
-127.6719611972642
 30
0.0
 10
266.9985409405699
 20
-127.6732650117304
 30
0.0
 10
266.9985409405699
 20
-127.6732650117304
 30
0.0
 10
266.9985409405699
 20
-127.6732650117304
 30
0.0
 10
266.9975509229681
 20
-127.0311325349425
 30
0.0
 10
266.9975509229681
 20
-127.0311325349425
 30
0.0
 10
266.9975509229681
 20
-127.0311325349425
 30
0.0
 10
271.6293389777463
 20
-127.0239914046108
 30
0.0
 10
271.6293389777463
 20
-127.0239914046108
 30
0.0
 10
271.6293389777463
 20
-127.0239914046108
 30
0.0
 10
271.6303289953481
 20
-127.6661238813997
 30
0.0
 10
271.6303289953481
 20
-127.6661238813997
 30
0.0
  0
SPLINE
  5
6BF
330
6A0
100
AcDbEntity
  8
Gravure
370
     0
100
AcDbSpline
210
0.0
220
0.0
230
1.0
 70
    11
 71
     3
 72
    29
 73
    25
 74
     0
 42
0.0000000001
 43
0.0000000001
 12
1.0
 22
0.0
 32
0.0
 13
1.0
 23
0.0
 33
0.0
 40
0.0
 40
0.0
 40
0.0
 40
0.0
 40
1.0
 40
1.0
 40
1.0
 40
2.0
 40
2.0
 40
2.0
 40
3.0
 40
3.0
 40
3.0
 40
4.0
 40
4.0
 40
4.0
 40
5.0
 40
5.0
 40
5.0
 40
6.0
 40
6.0
 40
6.0
 40
7.0
 40
7.0
 40
7.0
 40
8.0
 40
8.0
 40
8.0
 40
8.0
 10
269.3690584708208
 20
-130.7922781074016
 30
0.0
 10
269.9678940135827
 20
-130.7913548435111
 30
0.0
 10
270.4283224872049
 20
-130.6551920794853
 30
0.0
 10
270.7524591943146
 20
-130.3858986053435
 30
0.0
 10
271.0758193135769
 20
-130.1151982943047
 30
0.0
 10
271.2367962629301
 20
-129.7292895344867
 30
0.0
 10
271.23602354773
 20
-129.2281009474618
 30
0.0
 10
271.2352719884444
 20
-128.740634234377
 30
0.0
 10
271.0579726711532
 20
-128.3572950938193
 30
0.0
 10
270.7041947737126
 20
-128.0772897192411
 30
0.0
 10
270.3503476686949
 20
-127.798058870183
 30
0.0
 10
269.8640790756868
 20
-127.6584979728544
 30
0.0
 10
269.2439118647516
 20
-127.6594541251712
 30
0.0
 10
268.6760530018404
 20
-127.6603296302899
 30
0.0
 10
268.230767264439
 20
-127.8006227486998
 30
0.0
 10
267.9053077983111
 20
-128.0795632965889
 30
0.0
 10
267.5798472467603
 20
-128.3577998290447
 30
0.0
 10
267.4181599864856
 20
-128.7396263847768
 30
0.0
 10
267.4189051318456
 20
-129.2229329797931
 30
0.0
 10
267.4196535334868
 20
-129.7083516211111
 30
0.0
 10
267.5935011226639
 20
-130.0903648779463
 30
0.0
 10
267.9397480085472
 20
-130.3716490943694
 30
0.0
 10
268.2874030338725
 20
-130.6530015414819
 30
0.0
 10
268.7633939781791
 20
-130.7932118999298
 30
0.0
 10
269.3690584708208
 20
-130.7922781074016
 30
0.0
  0
ENDBLK
  5
6A3
330
6A0
100
AcDbEntity
  8
0
100
AcDbBlockEnd
  0
BLOCK
  5
6C2
330
6C0
100
AcDbEntity
  8
0
100
AcDbBlockBegin
  2
block 216
 70
     0
 10
0.0
 20
0.0
 30
0.0
  3
block 216
  1

  0
SPLINE
  5
6C4
330
6C0
100
AcDbEntity
  8
Gravure
370
     0
100
AcDbSpline
210
0.0
220
0.0
230
1.0
 70
    11
 71
     3
 72
    59
 73
    55
 74
     0
 42
0.0000000001
 43
0.0000000001
 12
1.0
 22
0.0
 32
0.0
 13
1.0
 23
0.0
 33
0.0
 40
0.0
 40
0.0
 40
0.0
 40
0.0
 40
1.0
 40
1.0
 40
1.0
 40
2.0
 40
2.0
 40
2.0
 40
3.0
 40
3.0
 40
3.0
 40
4.0
 40
4.0
 40
4.0
 40
5.0
 40
5.0
 40
5.0
 40
6.0
 40
6.0
 40
6.0
 40
7.0
 40
7.0
 40
7.0
 40
8.0
 40
8.0
 40
8.0
 40
9.0
 40
9.0
 40
9.0
 40
10.0
 40
10.0
 40
10.0
 40
11.0
 40
11.0
 40
11.0
 40
12.0
 40
12.0
 40
12.0
 40
13.0
 40
13.0
 40
13.0
 40
14.0
 40
14.0
 40
14.0
 40
15.0
 40
15.0
 40
15.0
 40
16.0
 40
16.0
 40
16.0
 40
17.0
 40
17.0
 40
17.0
 40
18.0
 40
18.0
 40
18.0
 40
18.0
 10
266.8045334862978
 20
-149.8782636759439
 30
0.0
 10
266.8045334862978
 20
-149.8782636759439
 30
0.0
 10
269.8886843747733
 20
-149.87350863897
 30
0.0
 10
269.8886843747733
 20
-149.87350863897
 30
0.0
 10
270.0591969170475
 20
-149.87324574864
 30
0.0
 10
270.2311673113011
 20
-149.9052949958496
 30
0.0
 10
270.3700807823548
 20
-149.9580229103093
 30
0.0
 10
270.7869821875294
 20
-150.1293011236619
 30
0.0
 10
271.2266144920664
 20
-150.7514672482444
 30
0.0
 10
271.2275875770164
 20
-151.3826170842725
 30
0.0
 10
271.228906252799
 20
-152.2379196008698
 30
0.0
 10
270.5666081821677
 20
-152.5386466249073
 30
0.0
 10
269.5820425737088
 20
-152.5401645940486
 30
0.0
 10
269.5820425737088
 20
-152.5401645940486
 30
0.0
 10
266.8086441053791
 20
-152.5444405237079
 30
0.0
 10
266.8086441053791
 20
-152.5444405237079
 30
0.0
 10
266.8086441053791
 20
-152.5444405237079
 30
0.0
 10
266.8086536571309
 20
-152.5506358595224
 30
0.0
 10
266.8086536571309
 20
-152.5506358595224
 30
0.0
 10
266.8086536571309
 20
-152.5506358595224
 30
0.0
 10
266.8096680968336
 20
-153.2086086835618
 30
0.0
 10
266.8096680968336
 20
-153.2086086835618
 30
0.0
 10
266.8096680968336
 20
-153.2086086835618
 30
0.0
 10
269.7439340957568
 20
-153.2040847339177
 30
0.0
 10
269.7439340957568
 20
-153.2040847339177
 30
0.0
 10
269.7439340957568
 20
-153.2040847339177
 30
0.0
 10
273.9584521926271
 20
-153.1975869359484
 30
0.0
 10
273.9584521926271
 20
-153.1975869359484
 30
0.0
 10
273.9584521926271
 20
-153.1975869359484
 30
0.0
 10
273.9574377529282
 20
-152.5396141119078
 30
0.0
 10
273.9574377529282
 20
-152.5396141119078
 30
0.0
 10
273.9574377529282
 20
-152.5396141119078
 30
0.0
 10
271.4782473416403
 20
-152.543436441781
 30
0.0
 10
271.4782473416403
 20
-152.543436441781
 30
0.0
 10
271.7595776531856
 20
-152.1814195103735
 30
0.0
 10
271.8241550808535
 20
-151.7371497083565
 30
0.0
 10
271.8236230137458
 20
-151.3920471889588
 30
0.0
 10
271.8224537922112
 20
-150.6336817641191
 30
0.0
 10
271.4655805100587
 20
-150.1268468500686
 30
0.0
 10
271.0905218509538
 20
-149.8798926877428
 30
0.0
 10
271.0905218509538
 20
-149.8798926877428
 30
0.0
 10
271.8681090876214
 20
-149.8801018648986
 30
0.0
 10
271.8681090876214
 20
-149.8801018648986
 30
0.0
 10
271.8681090876214
 20
-149.8801018648986
 30
0.0
 10
271.8670067283655
 20
-149.1651037907551
 30
0.0
 10
271.8670067283655
 20
-149.1651037907551
 30
0.0
 10
271.8670067283655
 20
-149.1651037907551
 30
0.0
 10
270.4761538030385
 20
-149.1672481596019
 30
0.0
 10
270.4761538030385
 20
-149.1672481596019
 30
0.0
 10
270.4761538030385
 20
-149.1672481596019
 30
0.0
 10
266.803445997386
 20
-149.1729106132373
 30
0.0
 10
266.803445997386
 20
-149.1729106132373
 30
0.0
 10
266.803445997386
 20
-149.1729106132373
 30
0.0
 10
266.8045334862978
 20
-149.8782636759439
 30
0.0
 10
266.8045334862978
 20
-149.8782636759439
 30
0.0
  0
ENDBLK
  5
6C3
330
6C0
100
AcDbEntity
  8
0
100
AcDbBlockEnd
  0
ENDSEC
  0
SECTION
  2
ENTITIES
  0
INSERT
  5
42
330
1F
100
AcDbEntity
  8
Exterieur
100
AcDbBlockReference
  2
block 2
 10
0.0
 20
0.0
 30
0.0
  0
INSERT
  5
13C
330
1F
100
AcDbEntity
  8
Exterieur
100
AcDbBlockReference
  2
block 38
 10
0.0
 20
0.0
 30
0.0
  0
INSERT
  5
1AE
330
1F
100
AcDbEntity
  8
Exterieur
100
AcDbBlockReference
  2
block 55
 10
0.0
 20
0.0
 30
0.0
  0
INSERT
  5
220
330
1F
100
AcDbEntity
  8
Exterieur
100
AcDbBlockReference
  2
block 72
 10
0.0
 20
0.0
 30
0.0
  0
INSERT
  5
293
330
1F
100
AcDbEntity
  8
interieur
100
AcDbBlockReference
  2
block 89
 10
0.0
 20
0.0
 30
0.0
  0
INSERT
  5
298
330
1F
100
AcDbEntity
  8
interieur
100
AcDbBlockReference
  2
block 90
 10
0.0
 20
0.0
 30
0.0
  0
INSERT
  5
2A0
330
1F
100
AcDbEntity
  8
interieur
100
AcDbBlockReference
  2
block 91
 10
0.0
 20
0.0
 30
0.0
  0
INSERT
  5
2A8
330
1F
100
AcDbEntity
  8
interieur
100
AcDbBlockReference
  2
block 92
 10
0.0
 20
0.0
 30
0.0
  0
INSERT
  5
2B0
330
1F
100
AcDbEntity
  8
interieur
100
AcDbBlockReference
  2
block 93
 10
0.0
 20
0.0
 30
0.0
  0
INSERT
  5
2B7
330
1F
100
AcDbEntity
  8
interieur
100
AcDbBlockReference
  2
block 94
 10
0.0
 20
0.0
 30
0.0
  0
INSERT
  5
2BE
330
1F
100
AcDbEntity
  8
interieur
100
AcDbBlockReference
  2
block 95
 10
0.0
 20
0.0
 30
0.0
  0
INSERT
  5
2C6
330
1F
100
AcDbEntity
  8
interieur
100
AcDbBlockReference
  2
block 96
 10
0.0
 20
0.0
 30
0.0
  0
INSERT
  5
2CE
330
1F
100
AcDbEntity
  8
interieur
100
AcDbBlockReference
  2
block 97
 10
0.0
 20
0.0
 30
0.0
  0
INSERT
  5
2D3
330
1F
100
AcDbEntity
  8
interieur
100
AcDbBlockReference
  2
block 98
 10
0.0
 20
0.0
 30
0.0
  0
INSERT
  5
2D8
330
1F
100
AcDbEntity
  8
interieur
100
AcDbBlockReference
  2
block 99
 10
0.0
 20
0.0
 30
0.0
  0
INSERT
  5
2E0
330
1F
100
AcDbEntity
  8
interieur
100
AcDbBlockReference
  2
block 100
 10
0.0
 20
0.0
 30
0.0
  0
INSERT
  5
2E7
330
1F
100
AcDbEntity
  8
interieur
100
AcDbBlockReference
  2
block 101
 10
0.0
 20
0.0
 30
0.0
  0
INSERT
  5
2EE
330
1F
100
AcDbEntity
  8
interieur
100
AcDbBlockReference
  2
block 102
 10
0.0
 20
0.0
 30
0.0
  0
INSERT
  5
2F6
330
1F
100
AcDbEntity
  8
interieur
100
AcDbBlockReference
  2
block 103
 10
0.0
 20
0.0
 30
0.0
  0
INSERT
  5
2FE
330
1F
100
AcDbEntity
  8
interieur
100
AcDbBlockReference
  2
block 104
 10
0.0
 20
0.0
 30
0.0
  0
INSERT
  5
306
330
1F
100
AcDbEntity
  8
interieur
100
AcDbBlockReference
  2
block 105
 10
0.0
 20
0.0
 30
0.0
  0
INSERT
  5
30E
330
1F
100
AcDbEntity
  8
interieur
100
AcDbBlockReference
  2
block 106
 10
0.0
 20
0.0
 30
0.0
  0
INSERT
  5
316
330
1F
100
AcDbEntity
  8
interieur
100
AcDbBlockReference
  2
block 107
 10
0.0
 20
0.0
 30
0.0
  0
INSERT
  5
31D
330
1F
100
AcDbEntity
  8
interieur
100
AcDbBlockReference
  2
block 108
 10
0.0
 20
0.0
 30
0.0
  0
INSERT
  5
324
330
1F
100
AcDbEntity
  8
interieur
100
AcDbBlockReference
  2
block 109
 10
0.0
 20
0.0
 30
0.0
  0
INSERT
  5
32C
330
1F
100
AcDbEntity
  8
interieur
100
AcDbBlockReference
  2
block 110
 10
0.0
 20
0.0
 30
0.0
  0
INSERT
  5
334
330
1F
100
AcDbEntity
  8
interieur
100
AcDbBlockReference
  2
block 111
 10
0.0
 20
0.0
 30
0.0
  0
INSERT
  5
33C
330
1F
100
AcDbEntity
  8
interieur
100
AcDbBlockReference
  2
block 112
 10
0.0
 20
0.0
 30
0.0
  0
INSERT
  5
344
330
1F
100
AcDbEntity
  8
interieur
100
AcDbBlockReference
  2
block 113
 10
0.0
 20
0.0
 30
0.0
  0
INSERT
  5
34C
330
1F
100
AcDbEntity
  8
interieur
100
AcDbBlockReference
  2
block 114
 10
0.0
 20
0.0
 30
0.0
  0
INSERT
  5
351
330
1F
100
AcDbEntity
  8
interieur
100
AcDbBlockReference
  2
block 115
 10
0.0
 20
0.0
 30
0.0
  0
INSERT
  5
356
330
1F
100
AcDbEntity
  8
interieur
100
AcDbBlockReference
  2
block 116
 10
0.0
 20
0.0
 30
0.0
  0
INSERT
  5
35D
330
1F
100
AcDbEntity
  8
interieur
100
AcDbBlockReference
  2
block 117
 10
0.0
 20
0.0
 30
0.0
  0
INSERT
  5
362
330
1F
100
AcDbEntity
  8
interieur
100
AcDbBlockReference
  2
block 118
 10
0.0
 20
0.0
 30
0.0
  0
INSERT
  5
369
330
1F
100
AcDbEntity
  8
interieur
100
AcDbBlockReference
  2
block 119
 10
0.0
 20
0.0
 30
0.0
  0
INSERT
  5
36E
330
1F
100
AcDbEntity
  8
interieur
100
AcDbBlockReference
  2
block 120
 10
0.0
 20
0.0
 30
0.0
  0
INSERT
  5
373
330
1F
100
AcDbEntity
  8
interieur
100
AcDbBlockReference
  2
block 121
 10
0.0
 20
0.0
 30
0.0
  0
POLYLINE
  5
377
330
1F
100
AcDbEntity
  8
interieur
370
     0
100
AcDb2dPolyline
 66
     1
 10
0.0
 20
0.0
 30
0.0
  0
VERTEX
  5
378
330
377
100
AcDbEntity
  8
interieur
370
     0
100
AcDbVertex
100
AcDb2dVertex
 10
232.3949251425913
 20
-185.7486702838855
 30
0.0
  0
VERTEX
  5
379
330
377
100
AcDbEntity
  8
interieur
370
     0
100
AcDbVertex
100
AcDb2dVertex
 10
226.0309641118911
 20
-192.1126313144857
 30
0.0
  0
SEQEND
  5
37A
330
377
100
AcDbEntity
  8
interieur
370
     0
  0
INSERT
  5
37C
330
1F
100
AcDbEntity
  8
interieur
100
AcDbBlockReference
  2
block 122
 10
0.0
 20
0.0
 30
0.0
  0
INSERT
  5
384
330
1F
100
AcDbEntity
  8
interieur
100
AcDbBlockReference
  2
block 123
 10
0.0
 20
0.0
 30
0.0
  0
INSERT
  5
38C
330
1F
100
AcDbEntity
  8
interieur
100
AcDbBlockReference
  2
block 124
 10
0.0
 20
0.0
 30
0.0
  0
INSERT
  5
394
330
1F
100
AcDbEntity
  8
interieur
100
AcDbBlockReference
  2
block 125
 10
0.0
 20
0.0
 30
0.0
  0
INSERT
  5
39C
330
1F
100
AcDbEntity
  8
interieur
100
AcDbBlockReference
  2
block 126
 10
0.0
 20
0.0
 30
0.0
  0
POLYLINE
  5
3A3
330
1F
100
AcDbEntity
  8
interieur
370
     0
100
AcDb2dPolyline
 66
     1
 10
0.0
 20
0.0
 30
0.0
  0
VERTEX
  5
3A4
330
3A3
100
AcDbEntity
  8
interieur
370
     0
100
AcDbVertex
100
AcDb2dVertex
 10
243.8500549977913
 20
-188.7185187647854
 30
0.0
  0
VERTEX
  5
3A5
330
3A3
100
AcDbEntity
  8
interieur
370
     0
100
AcDbVertex
100
AcDb2dVertex
 10
250.2140160284916
 20
-182.3545577341852
 30
0.0
  0
SEQEND
  5
3A6
330
3A3
100
AcDbEntity
  8
interieur
370
     0
  0
INSERT
  5
3A8
330
1F
100
AcDbEntity
  8
interieur
100
AcDbBlockReference
  2
block 127
 10
0.0
 20
0.0
 30
0.0
  0
INSERT
  5
3AD
330
1F
100
AcDbEntity
  8
interieur
100
AcDbBlockReference
  2
block 128
 10
0.0
 20
0.0
 30
0.0
  0
SPLINE
  5
3B1
330
1F
100
AcDbEntity
  8
interieur
370
     0
100
AcDbSpline
210
0.0
220
0.0
230
1.0
 70
     8
 71
     3
 72
    11
 73
     7
 74
     0
 42
0.0000000001
 43
0.0000000001
 12
1.0
 22
0.0
 32
0.0
 13
1.0
 23
0.0
 33
0.0
 40
0.0
 40
0.0
 40
0.0
 40
0.0
 40
1.0
 40
1.0
 40
1.0
 40
2.0
 40
2.0
 40
2.0
 40
2.0
 10
146.7492181813848
 20
-189.4256255459856
 30
0.0
 10
146.7492181813848
 20
-188.5971984212356
 30
0.0
 10
147.4207910566416
 20
-187.9256255459788
 30
0.0
 10
148.2492181813913
 20
-187.9256255459788
 30
0.0
 10
149.0776453061412
 20
-187.9256255459788
 30
0.0
 10
149.7492181813981
 20
-188.5971984212356
 30
0.0
 10
149.7492181813981
 20
-189.4256255459856
 30
0.0
  0
POLYLINE
  5
3B2
330
1F
100
AcDbEntity
  8
interieur
370
     0
100
AcDb2dPolyline
 66
     1
 10
0.0
 20
0.0
 30
0.0
  0
VERTEX
  5
3B3
330
3B2
100
AcDbEntity
  8
interieur
370
     0
100
AcDbVertex
100
AcDb2dVertex
 10
148.2492181813913
 20
-182.3545577341852
 30
0.0
  0
VERTEX
  5
3B4
330
3B2
100
AcDbEntity
  8
interieur
370
     0
100
AcDbVertex
100
AcDb2dVertex
 10
154.6131792120915
 20
-188.7185187647854
 30
0.0
  0
SEQEND
  5
3B5
330
3B2
100
AcDbEntity
  8
interieur
370
     0
  0
INSERT
  5
3B7
330
1F
100
AcDbEntity
  8
interieur
100
AcDbBlockReference
  2
block 129
 10
0.0
 20
0.0
 30
0.0
  0
INSERT
  5
3BF
330
1F
100
AcDbEntity
  8
interieur
100
AcDbBlockReference
  2
block 130
 10
0.0
 20
0.0
 30
0.0
  0
INSERT
  5
3C7
330
1F
100
AcDbEntity
  8
interieur
100
AcDbBlockReference
  2
block 131
 10
0.0
 20
0.0
 30
0.0
  0
INSERT
  5
3CF
330
1F
100
AcDbEntity
  8
interieur
100
AcDbBlockReference
  2
block 132
 10
0.0
 20
0.0
 30
0.0
  0
INSERT
  5
3D7
330
1F
100
AcDbEntity
  8
interieur
100
AcDbBlockReference
  2
block 133
 10
0.0
 20
0.0
 30
0.0
  0
POLYLINE
  5
3DE
330
1F
100
AcDbEntity
  8
interieur
370
     0
100
AcDb2dPolyline
 66
     1
 10
0.0
 20
0.0
 30
0.0
  0
VERTEX
  5
3DF
330
3DE
100
AcDbEntity
  8
interieur
370
     0
100
AcDbVertex
100
AcDb2dVertex
 10
172.4322700979914
 20
-192.1126313144857
 30
0.0
  0
VERTEX
  5
3E0
330
3DE
100
AcDbEntity
  8
interieur
370
     0
100
AcDbVertex
100
AcDb2dVertex
 10
166.0683090672915
 20
-185.7486702838855
 30
0.0
  0
SEQEND
  5
3E1
330
3DE
100
AcDbEntity
  8
interieur
370
     0
  0
POLYLINE
  5
3E2
330
1F
100
AcDbEntity
  8
interieur
370
     0
100
AcDb2dPolyline
 66
     1
 10
0.0
 20
0.0
 30
0.0
  0
VERTEX
  5
3E3
330
3E2
100
AcDbEntity
  8
interieur
370
     0
100
AcDbVertex
100
AcDb2dVertex
 10
250.2140160284916
 20
-114.3308853839855
 30
0.0
  0
VERTEX
  5
3E4
330
3E2
100
AcDbEntity
  8
interieur
370
     0
100
AcDbVertex
100
AcDb2dVertex
 10
243.8500549977913
 20
-107.9669243532856
 30
0.0
  0
SEQEND
  5
3E5
330
3E2
100
AcDbEntity
  8
interieur
370
     0
  0
INSERT
  5
3E7
330
1F
100
AcDbEntity
  8
interieur
100
AcDbBlockReference
  2
block 134
 10
0.0
 20
0.0
 30
0.0
  0
INSERT
  5
3EF
330
1F
100
AcDbEntity
  8
interieur
100
AcDbBlockReference
  2
block 135
 10
0.0
 20
0.0
 30
0.0
  0
INSERT
  5
3F7
330
1F
100
AcDbEntity
  8
interieur
100
AcDbBlockReference
  2
block 136
 10
0.0
 20
0.0
 30
0.0
  0
INSERT
  5
3FF
330
1F
100
AcDbEntity
  8
interieur
100
AcDbBlockReference
  2
block 137
 10
0.0
 20
0.0
 30
0.0
  0
POLYLINE
  5
406
330
1F
100
AcDbEntity
  8
interieur
370
     0
100
AcDb2dPolyline
 66
     1
 10
0.0
 20
0.0
 30
0.0
  0
VERTEX
  5
407
330
406
100
AcDbEntity
  8
interieur
370
     0
100
AcDbVertex
100
AcDb2dVertex
 10
232.3949251425913
 20
-110.9367728342856
 30
0.0
  0
VERTEX
  5
408
330
406
100
AcDbEntity
  8
interieur
370
     0
100
AcDbVertex
100
AcDb2dVertex
 10
225.3238573306916
 20
-118.0078406461854
 30
0.0
  0
SEQEND
  5
409
330
406
100
AcDbEntity
  8
interieur
370
     0
  0
INSERT
  5
40B
330
1F
100
AcDbEntity
  8
interieur
100
AcDbBlockReference
  2
block 138
 10
0.0
 20
0.0
 30
0.0
  0
SPLINE
  5
40F
330
1F
100
AcDbEntity
  8
interieur
370
     0
100
AcDbSpline
210
0.0
220
0.0
230
1.0
 70
    11
 71
     3
 72
    20
 73
    16
 74
     0
 42
0.0000000001
 43
0.0000000001
 12
1.0
 22
0.0
 32
0.0
 13
1.0
 23
0.0
 33
0.0
 40
0.0
 40
0.0
 40
0.0
 40
0.0
 40
1.0
 40
1.0
 40
1.0
 40
2.0
 40
2.0
 40
2.0
 40
3.0
 40
3.0
 40
3.0
 40
4.0
 40
4.0
 40
4.0
 40
5.0
 40
5.0
 40
5.0
 40
5.0
 10
226.0309641118911
 20
-110.1438796154822
 30
0.0
 10
226.8593912366391
 20
-110.1438796154822
 30
0.0
 10
227.5309641118947
 20
-110.8154524907371
 30
0.0
 10
227.5309641118947
 20
-111.6438796154854
 30
0.0
 10
227.5309641118947
 20
-112.4723067402335
 30
0.0
 10
226.8593912366391
 20
-113.1438796154887
 30
0.0
 10
226.0309641118911
 20
-113.1438796154887
 30
0.0
 10
225.2025369871437
 20
-113.1438796154887
 30
0.0
 10
224.5309641118882
 20
-112.4723067402335
 30
0.0
 10
224.5309641118882
 20
-111.6438796154854
 30
0.0
 10
224.5309641118882
 20
-111.6438796154854
 30
0.0
 10
224.5309641118882
 20
-111.6438796154854
 30
0.0
 10
224.5309641118882
 20
-111.6438796154854
 30
0.0
 10
224.5309641118882
 20
-110.8154524907371
 30
0.0
 10
225.2025369871437
 20
-110.1438796154822
 30
0.0
 10
226.0309641118911
 20
-110.1438796154822
 30
0.0
  0
SPLINE
  5
410
330
1F
100
AcDbEntity
  8
interieur
370
     0
100
AcDbSpline
210
0.0
220
0.0
230
1.0
 70
     8
 71
     3
 72
    11
 73
     7
 74
     0
 42
0.0000000001
 43
0.0000000001
 12
1.0
 22
0.0
 32
0.0
 13
1.0
 23
0.0
 33
0.0
 40
0.0
 40
0.0
 40
0.0
 40
0.0
 40
1.0
 40
1.0
 40
1.0
 40
2.0
 40
2.0
 40
2.0
 40
2.0
 10
248.7140160283212
 20
-189.4256255460857
 30
0.0
 10
248.7140160283212
 20
-188.5971984213004
 30
0.0
 10
249.3855889036062
 20
-187.9256255460153
 30
0.0
 10
250.2140160283915
 20
-187.9256255460153
 30
0.0
 10
251.0424431531761
 20
-187.9256255460153
 30
0.0
 10
251.7140160284618
 20
-188.5971984213004
 30
0.0
 10
251.7140160284618
 20
-189.4256255460857
 30
0.0
  0
INSERT
  5
412
330
1F
100
AcDbEntity
  8
interieur
100
AcDbBlockReference
  2
block 139
 10
0.0
 20
0.0
 30
0.0
  0
INSERT
  5
417
330
1F
100
AcDbEntity
  8
interieur
100
AcDbBlockReference
  2
block 140
 10
0.0
 20
0.0
 30
0.0
  0
SPLINE
  5
41B
330
1F
100
AcDbEntity
  8
interieur
370
     0
100
AcDbSpline
210
0.0
220
0.0
230
1.0
 70
    11
 71
     3
 72
    20
 73
    16
 74
     0
 42
0.0000000001
 43
0.0000000001
 12
1.0
 22
0.0
 32
0.0
 13
1.0
 23
0.0
 33
0.0
 40
0.0
 40
0.0
 40
0.0
 40
0.0
 40
1.0
 40
1.0
 40
1.0
 40
2.0
 40
2.0
 40
2.0
 40
3.0
 40
3.0
 40
3.0
 40
4.0
 40
4.0
 40
4.0
 40
5.0
 40
5.0
 40
5.0
 40
5.0
 10
199.2316171094914
 20
-111.3427215590855
 30
0.0
 10
200.3361866091533
 20
-111.3427215590855
 30
0.0
 10
201.2316171094915
 20
-112.2381520594237
 30
0.0
 10
201.2316171094915
 20
-113.3427215590856
 30
0.0
 10
201.2316171094915
 20
-114.4472910587469
 30
0.0
 10
200.3361866091533
 20
-115.3427215590853
 30
0.0
 10
199.2316171094914
 20
-115.3427215590853
 30
0.0
 10
198.1270476098298
 20
-115.3427215590853
 30
0.0
 10
197.2316171094913
 20
-114.4472910587469
 30
0.0
 10
197.2316171094913
 20
-113.3427215590856
 30
0.0
 10
197.2316171094913
 20
-113.3427215590856
 30
0.0
 10
197.2316171094913
 20
-113.3427215590856
 30
0.0
 10
197.2316171094913
 20
-113.3427215590856
 30
0.0
 10
197.2316171094913
 20
-112.2381520594237
 30
0.0
 10
198.1270476098298
 20
-111.3427215590855
 30
0.0
 10
199.2316171094914
 20
-111.3427215590855
 30
0.0
  0
INSERT
  5
41D
330
1F
100
AcDbEntity
  8
interieur
100
AcDbBlockReference
  2
block 141
 10
0.0
 20
0.0
 30
0.0
  0
INSERT
  5
422
330
1F
100
AcDbEntity
  8
interieur
100
AcDbBlockReference
  2
block 142
 10
0.0
 20
0.0
 30
0.0
  0
INSERT
  5
42A
330
1F
100
AcDbEntity
  8
interieur
100
AcDbBlockReference
  2
block 143
 10
0.0
 20
0.0
 30
0.0
  0
INSERT
  5
432
330
1F
100
AcDbEntity
  8
interieur
100
AcDbBlockReference
  2
block 144
 10
0.0
 20
0.0
 30
0.0
  0
INSERT
  5
43A
330
1F
100
AcDbEntity
  8
interieur
100
AcDbBlockReference
  2
block 145
 10
0.0
 20
0.0
 30
0.0
  0
INSERT
  5
442
330
1F
100
AcDbEntity
  8
interieur
100
AcDbBlockReference
  2
block 146
 10
0.0
 20
0.0
 30
0.0
  0
INSERT
  5
449
330
1F
100
AcDbEntity
  8
interieur
100
AcDbBlockReference
  2
block 147
 10
0.0
 20
0.0
 30
0.0
  0
INSERT
  5
450
330
1F
100
AcDbEntity
  8
interieur
100
AcDbBlockReference
  2
block 148
 10
0.0
 20
0.0
 30
0.0
  0
INSERT
  5
458
330
1F
100
AcDbEntity
  8
interieur
100
AcDbBlockReference
  2
block 149
 10
0.0
 20
0.0
 30
0.0
  0
INSERT
  5
460
330
1F
100
AcDbEntity
  8
interieur
100
AcDbBlockReference
  2
block 150
 10
0.0
 20
0.0
 30
0.0
  0
INSERT
  5
465
330
1F
100
AcDbEntity
  8
interieur
100
AcDbBlockReference
  2
block 151
 10
0.0
 20
0.0
 30
0.0
  0
INSERT
  5
46C
330
1F
100
AcDbEntity
  8
interieur
100
AcDbBlockReference
  2
block 152
 10
0.0
 20
0.0
 30
0.0
  0
POLYLINE
  5
470
330
1F
100
AcDbEntity
  8
interieur
370
     0
100
AcDb2dPolyline
 66
     1
 10
0.0
 20
0.0
 30
0.0
  0
VERTEX
  5
471
330
470
100
AcDbEntity
  8
interieur
370
     0
100
AcDbVertex
100
AcDb2dVertex
 10
173.1393768791913
 20
-118.0078406461854
 30
0.0
  0
VERTEX
  5
472
330
470
100
AcDbEntity
  8
interieur
370
     0
100
AcDbVertex
100
AcDb2dVertex
 10
166.0683090672915
 20
-110.9367728342856
 30
0.0
  0
SEQEND
  5
473
330
470
100
AcDbEntity
  8
interieur
370
     0
  0
INSERT
  5
475
330
1F
100
AcDbEntity
  8
interieur
100
AcDbBlockReference
  2
block 153
 10
0.0
 20
0.0
 30
0.0
  0
INSERT
  5
47D
330
1F
100
AcDbEntity
  8
interieur
100
AcDbBlockReference
  2
block 154
 10
0.0
 20
0.0
 30
0.0
  0
INSERT
  5
485
330
1F
100
AcDbEntity
  8
interieur
100
AcDbBlockReference
  2
block 155
 10
0.0
 20
0.0
 30
0.0
  0
INSERT
  5
48D
330
1F
100
AcDbEntity
  8
interieur
100
AcDbBlockReference
  2
block 156
 10
0.0
 20
0.0
 30
0.0
  0
POLYLINE
  5
494
330
1F
100
AcDbEntity
  8
interieur
370
     0
100
AcDb2dPolyline
 66
     1
 10
0.0
 20
0.0
 30
0.0
  0
VERTEX
  5
495
330
494
100
AcDbEntity
  8
interieur
370
     0
100
AcDbVertex
100
AcDb2dVertex
 10
154.6131792120915
 20
-107.9669243532856
 30
0.0
  0
VERTEX
  5
496
330
494
100
AcDbEntity
  8
interieur
370
     0
100
AcDbVertex
100
AcDb2dVertex
 10
148.2492181813913
 20
-114.3308853839855
 30
0.0
  0
SEQEND
  5
497
330
494
100
AcDbEntity
  8
interieur
370
     0
  0
SPLINE
  5
498
330
1F
100
AcDbEntity
  8
interieur
370
     0
100
AcDbSpline
210
0.0
220
0.0
230
1.0
 70
    11
 71
     3
 72
    20
 73
    16
 74
     0
 42
0.0000000001
 43
0.0000000001
 12
1.0
 22
0.0
 32
0.0
 13
1.0
 23
0.0
 33
0.0
 40
0.0
 40
0.0
 40
0.0
 40
0.0
 40
1.0
 40
1.0
 40
1.0
 40
2.0
 40
2.0
 40
2.0
 40
3.0
 40
3.0
 40
3.0
 40
4.0
 40
4.0
 40
4.0
 40
5.0
 40
5.0
 40
5.0
 40
5.0
 10
172.4322700978913
 20
-110.1438796154517
 30
0.0
 10
173.2606972226561
 20
-110.1438796154517
 30
0.0
 10
173.9322700979251
 20
-110.8154524907207
 30
0.0
 10
173.9322700979251
 20
-111.6438796154854
 30
0.0
 10
173.9322700979251
 20
-112.4723067402501
 30
0.0
 10
173.2606972226561
 20
-113.1438796155192
 30
0.0
 10
172.4322700978913
 20
-113.1438796155192
 30
0.0
 10
171.6038429731266
 20
-113.1438796155192
 30
0.0
 10
170.9322700978579
 20
-112.4723067402501
 30
0.0
 10
170.9322700978579
 20
-111.6438796154854
 30
0.0
 10
170.9322700978579
 20
-111.6438796154854
 30
0.0
 10
170.9322700978579
 20
-111.6438796154854
 30
0.0
 10
170.9322700978579
 20
-111.6438796154854
 30
0.0
 10
170.9322700978579
 20
-110.8154524907207
 30
0.0
 10
171.6038429731266
 20
-110.1438796154517
 30
0.0
 10
172.4322700978913
 20
-110.1438796154517
 30
0.0
  0
INSERT
  5
49A
330
1F
100
AcDbEntity
  8
interieur
100
AcDbBlockReference
  2
block 157
 10
0.0
 20
0.0
 30
0.0
  0
INSERT
  5
49F
330
1F
100
AcDbEntity
  8
interieur
100
AcDbBlockReference
  2
block 158
 10
0.0
 20
0.0
 30
0.0
  0
INSERT
  5
4A7
330
1F
100
AcDbEntity
  8
interieur
100
AcDbBlockReference
  2
block 159
 10
0.0
 20
0.0
 30
0.0
  0
INSERT
  5
4AF
330
1F
100
AcDbEntity
  8
interieur
100
AcDbBlockReference
  2
block 160
 10
0.0
 20
0.0
 30
0.0
  0
INSERT
  5
4B7
330
1F
100
AcDbEntity
  8
interieur
100
AcDbBlockReference
  2
block 161
 10
0.0
 20
0.0
 30
0.0
  0
INSERT
  5
4BF
330
1F
100
AcDbEntity
  8
interieur
100
AcDbBlockReference
  2
block 162
 10
0.0
 20
0.0
 30
0.0
  0
INSERT
  5
4C7
330
1F
100
AcDbEntity
  8
interieur
100
AcDbBlockReference
  2
block 163
 10
0.0
 20
0.0
 30
0.0
  0
POLYLINE
  5
4CE
330
1F
100
AcDbEntity
  8
interieur
370
     0
100
AcDb2dPolyline
 66
     1
 10
0.0
 20
0.0
 30
0.0
  0
VERTEX
  5
4CF
330
4CE
100
AcDbEntity
  8
interieur
370
     0
100
AcDbVertex
100
AcDb2dVertex
 10
247.0599266484916
 20
-260.5427675691853
 30
0.0
  0
VERTEX
  5
4D0
330
4CE
100
AcDbEntity
  8
interieur
370
     0
100
AcDbVertex
100
AcDb2dVertex
 10
251.3900536673914
 20
-258.0427675691855
 30
0.0
  0
SEQEND
  5
4D1
330
4CE
100
AcDbEntity
  8
interieur
370
     0
  0
POLYLINE
  5
4D2
330
1F
100
AcDbEntity
  8
interieur
370
     0
100
AcDb2dPolyline
 66
     1
 10
0.0
 20
0.0
 30
0.0
  0
VERTEX
  5
4D3
330
4D2
100
AcDbEntity
  8
interieur
370
     0
100
AcDbVertex
100
AcDb2dVertex
 10
234.0599266484911
 20
-238.0261070707855
 30
0.0
  0
VERTEX
  5
4D4
330
4D2
100
AcDbEntity
  8
interieur
370
     0
100
AcDbVertex
100
AcDb2dVertex
 10
247.0599266484916
 20
-260.5427675691853
 30
0.0
  0
SEQEND
  5
4D5
330
4D2
100
AcDbEntity
  8
interieur
370
     0
  0
INSERT
  5
4D7
330
1F
100
AcDbEntity
  8
interieur
100
AcDbBlockReference
  2
block 164
 10
0.0
 20
0.0
 30
0.0
  0
INSERT
  5
4DF
330
1F
100
AcDbEntity
  8
interieur
100
AcDbBlockReference
  2
block 165
 10
0.0
 20
0.0
 30
0.0
  0
INSERT
  5
4E7
330
1F
100
AcDbEntity
  8
interieur
100
AcDbBlockReference
  2
block 166
 10
0.0
 20
0.0
 30
0.0
  0
INSERT
  5
4EF
330
1F
100
AcDbEntity
  8
interieur
100
AcDbBlockReference
  2
block 167
 10
0.0
 20
0.0
 30
0.0
  0
INSERT
  5
4F7
330
1F
100
AcDbEntity
  8
interieur
100
AcDbBlockReference
  2
block 168
 10
0.0
 20
0.0
 30
0.0
  0
INSERT
  5
4FF
330
1F
100
AcDbEntity
  8
interieur
100
AcDbBlockReference
  2
block 169
 10
0.0
 20
0.0
 30
0.0
  0
INSERT
  5
507
330
1F
100
AcDbEntity
  8
interieur
100
AcDbBlockReference
  2
block 170
 10
0.0
 20
0.0
 30
0.0
  0
INSERT
  5
50F
330
1F
100
AcDbEntity
  8
interieur
100
AcDbBlockReference
  2
block 171
 10
0.0
 20
0.0
 30
0.0
  0
INSERT
  5
517
330
1F
100
AcDbEntity
  8
interieur
100
AcDbBlockReference
  2
block 172
 10
0.0
 20
0.0
 30
0.0
  0
INSERT
  5
51F
330
1F
100
AcDbEntity
  8
interieur
100
AcDbBlockReference
  2
block 173
 10
0.0
 20
0.0
 30
0.0
  0
POLYLINE
  5
526
330
1F
100
AcDbEntity
  8
interieur
370
     0
100
AcDb2dPolyline
 66
     1
 10
0.0
 20
0.0
 30
0.0
  0
VERTEX
  5
527
330
526
100
AcDbEntity
  8
interieur
370
     0
100
AcDbVertex
100
AcDb2dVertex
 10
285.1554254716912
 20
-208.5261070707854
 30
0.0
  0
VERTEX
  5
528
330
526
100
AcDbEntity
  8
interieur
370
     0
100
AcDbVertex
100
AcDb2dVertex
 10
298.1554254716917
 20
-231.0427675691852
 30
0.0
  0
SEQEND
  5
529
330
526
100
AcDbEntity
  8
interieur
370
     0
  0
POLYLINE
  5
52A
330
1F
100
AcDbEntity
  8
interieur
370
     0
100
AcDb2dPolyline
 66
     1
 10
0.0
 20
0.0
 30
0.0
  0
VERTEX
  5
52B
330
52A
100
AcDbEntity
  8
interieur
370
     0
100
AcDbVertex
100
AcDb2dVertex
 10
289.4855524906911
 20
-206.0261070707857
 30
0.0
  0
VERTEX
  5
52C
330
52A
100
AcDbEntity
  8
interieur
370
     0
100
AcDbVertex
100
AcDb2dVertex
 10
285.1554254716912
 20
-208.5261070707854
 30
0.0
  0
SEQEND
  5
52D
330
52A
100
AcDbEntity
  8
interieur
370
     0
  0
POLYLINE
  5
52E
330
1F
100
AcDbEntity
  8
interieur
370
     0
100
AcDb2dPolyline
 66
     1
 10
0.0
 20
0.0
 30
0.0
  0
VERTEX
  5
52F
330
52E
100
AcDbEntity
  8
interieur
370
     0
100
AcDbVertex
100
AcDb2dVertex
 10
302.4855524906916
 20
-228.5427675691855
 30
0.0
  0
VERTEX
  5
530
330
52E
100
AcDbEntity
  8
interieur
370
     0
100
AcDbVertex
100
AcDb2dVertex
 10
289.4855524906911
 20
-206.0261070707857
 30
0.0
  0
SEQEND
  5
531
330
52E
100
AcDbEntity
  8
interieur
370
     0
  0
POLYLINE
  5
532
330
1F
100
AcDbEntity
  8
interieur
370
     0
100
AcDb2dPolyline
 66
     1
 10
0.0
 20
0.0
 30
0.0
  0
VERTEX
  5
533
330
532
100
AcDbEntity
  8
interieur
370
     0
100
AcDbVertex
100
AcDb2dVertex
 10
298.1554254716917
 20
-231.0427675691852
 30
0.0
  0
VERTEX
  5
534
330
532
100
AcDbEntity
  8
interieur
370
     0
100
AcDbVertex
100
AcDb2dVertex
 10
302.4855524906916
 20
-228.5427675691855
 30
0.0
  0
SEQEND
  5
535
330
532
100
AcDbEntity
  8
interieur
370
     0
  0
POLYLINE
  5
536
330
1F
100
AcDbEntity
  8
interieur
370
     0
100
AcDb2dPolyline
 66
     1
 10
0.0
 20
0.0
 30
0.0
  0
VERTEX
  5
537
330
536
100
AcDbEntity
  8
interieur
370
     0
100
AcDbVertex
100
AcDb2dVertex
 10
277.6842053291916
 20
-78.34023415638536
 30
0.0
  0
VERTEX
  5
538
330
536
100
AcDbEntity
  8
interieur
370
     0
100
AcDbVertex
100
AcDb2dVertex
 10
287.6842053291913
 20
-78.34023415638536
 30
0.0
  0
SEQEND
  5
539
330
536
100
AcDbEntity
  8
interieur
370
     0
  0
INSERT
  5
53B
330
1F
100
AcDbEntity
  8
interieur
100
AcDbBlockReference
  2
block 174
 10
0.0
 20
0.0
 30
0.0
  0
POLYLINE
  5
542
330
1F
100
AcDbEntity
  8
interieur
370
     0
100
AcDb2dPolyline
 66
     1
 10
0.0
 20
0.0
 30
0.0
  0
VERTEX
  5
543
330
542
100
AcDbEntity
  8
interieur
370
     0
100
AcDbVertex
100
AcDb2dVertex
 10
287.6842053291913
 20
-73.3402341563855
 30
0.0
  0
VERTEX
  5
544
330
542
100
AcDbEntity
  8
interieur
370
     0
100
AcDbVertex
100
AcDb2dVertex
 10
277.6842053291916
 20
-73.3402341563855
 30
0.0
  0
SEQEND
  5
545
330
542
100
AcDbEntity
  8
interieur
370
     0
  0
INSERT
  5
547
330
1F
100
AcDbEntity
  8
interieur
100
AcDbBlockReference
  2
block 175
 10
0.0
 20
0.0
 30
0.0
  0
INSERT
  5
54F
330
1F
100
AcDbEntity
  8
interieur
100
AcDbBlockReference
  2
block 176
 10
0.0
 20
0.0
 30
0.0
  0
INSERT
  5
557
330
1F
100
AcDbEntity
  8
interieur
100
AcDbBlockReference
  2
block 177
 10
0.0
 20
0.0
 30
0.0
  0
INSERT
  5
55F
330
1F
100
AcDbEntity
  8
interieur
100
AcDbBlockReference
  2
block 178
 10
0.0
 20
0.0
 30
0.0
  0
INSERT
  5
567
330
1F
100
AcDbEntity
  8
interieur
100
AcDbBlockReference
  2
block 179
 10
0.0
 20
0.0
 30
0.0
  0
INSERT
  5
56F
330
1F
100
AcDbEntity
  8
interieur
100
AcDbBlockReference
  2
block 180
 10
0.0
 20
0.0
 30
0.0
  0
INSERT
  5
577
330
1F
100
AcDbEntity
  8
interieur
100
AcDbBlockReference
  2
block 181
 10
0.0
 20
0.0
 30
0.0
  0
POLYLINE
  5
57E
330
1F
100
AcDbEntity
  8
interieur
370
     0
100
AcDb2dPolyline
 66
     1
 10
0.0
 20
0.0
 30
0.0
  0
VERTEX
  5
57F
330
57E
100
AcDbEntity
  8
interieur
370
     0
100
AcDbVertex
100
AcDb2dVertex
 10
247.0599266483915
 20
-36.14267554888539
 30
0.0
  0
VERTEX
  5
580
330
57E
100
AcDbEntity
  8
interieur
370
     0
100
AcDbVertex
100
AcDb2dVertex
 10
234.0599266483917
 20
-58.65933604728549
 30
0.0
  0
SEQEND
  5
581
330
57E
100
AcDbEntity
  8
interieur
370
     0
  0
POLYLINE
  5
582
330
1F
100
AcDbEntity
  8
interieur
370
     0
100
AcDb2dPolyline
 66
     1
 10
0.0
 20
0.0
 30
0.0
  0
VERTEX
  5
583
330
582
100
AcDbEntity
  8
interieur
370
     0
100
AcDbVertex
100
AcDb2dVertex
 10
251.3900536672913
 20
-38.64267554888549
 30
0.0
  0
VERTEX
  5
584
330
582
100
AcDbEntity
  8
interieur
370
     0
100
AcDbVertex
100
AcDb2dVertex
 10
247.0599266483915
 20
-36.14267554888539
 30
0.0
  0
SEQEND
  5
585
330
582
100
AcDbEntity
  8
interieur
370
     0
  0
INSERT
  5
587
330
1F
100
AcDbEntity
  8
interieur
100
AcDbBlockReference
  2
block 182
 10
0.0
 20
0.0
 30
0.0
  0
INSERT
  5
58F
330
1F
100
AcDbEntity
  8
interieur
100
AcDbBlockReference
  2
block 183
 10
0.0
 20
0.0
 30
0.0
  0
INSERT
  5
597
330
1F
100
AcDbEntity
  8
interieur
100
AcDbBlockReference
  2
block 184
 10
0.0
 20
0.0
 30
0.0
  0
INSERT
  5
59F
330
1F
100
AcDbEntity
  8
interieur
100
AcDbBlockReference
  2
block 185
 10
0.0
 20
0.0
 30
0.0
  0
INSERT
  5
5A7
330
1F
100
AcDbEntity
  8
interieur
100
AcDbBlockReference
  2
block 186
 10
0.0
 20
0.0
 30
0.0
  0
INSERT
  5
5AF
330
1F
100
AcDbEntity
  8
interieur
100
AcDbBlockReference
  2
block 187
 10
0.0
 20
0.0
 30
0.0
  0
INSERT
  5
5B7
330
1F
100
AcDbEntity
  8
interieur
100
AcDbBlockReference
  2
block 188
 10
0.0
 20
0.0
 30
0.0
  0
INSERT
  5
5BE
330
1F
100
AcDbEntity
  8
interieur
100
AcDbBlockReference
  2
block 189
 10
0.0
 20
0.0
 30
0.0
  0
POLYLINE
  5
5C4
330
1F
100
AcDbEntity
  8
interieur
370
     0
100
AcDb2dPolyline
 66
     1
 10
0.0
 20
0.0
 30
0.0
  0
VERTEX
  5
5C5
330
5C4
100
AcDbEntity
  8
interieur
370
     0
100
AcDbVertex
100
AcDb2dVertex
 10
298.1554254716917
 20
-65.64267554888548
 30
0.0
  0
VERTEX
  5
5C6
330
5C4
100
AcDbEntity
  8
interieur
370
     0
100
AcDbVertex
100
AcDb2dVertex
 10
285.1554254716912
 20
-88.15933604728556
 30
0.0
  0
SEQEND
  5
5C7
330
5C4
100
AcDbEntity
  8
interieur
370
     0
  0
POLYLINE
  5
5C8
330
1F
100
AcDbEntity
  8
interieur
370
     0
100
AcDb2dPolyline
 66
     1
 10
0.0
 20
0.0
 30
0.0
  0
VERTEX
  5
5C9
330
5C8
100
AcDbEntity
  8
interieur
370
     0
100
AcDbVertex
100
AcDb2dVertex
 10
289.4855524905917
 20
-90.65933604728534
 30
0.0
  0
VERTEX
  5
5CA
330
5C8
100
AcDbEntity
  8
interieur
370
     0
100
AcDbVertex
100
AcDb2dVertex
 10
302.4855524905915
 20
-68.14267554888556
 30
0.0
  0
SEQEND
  5
5CB
330
5C8
100
AcDbEntity
  8
interieur
370
     0
  0
POLYLINE
  5
5CC
330
1F
100
AcDbEntity
  8
interieur
370
     0
100
AcDb2dPolyline
 66
     1
 10
0.0
 20
0.0
 30
0.0
  0
VERTEX
  5
5CD
330
5CC
100
AcDbEntity
  8
interieur
370
     0
100
AcDbVertex
100
AcDb2dVertex
 10
285.1554254716912
 20
-88.15933604728556
 30
0.0
  0
VERTEX
  5
5CE
330
5CC
100
AcDbEntity
  8
interieur
370
     0
100
AcDbVertex
100
AcDb2dVertex
 10
289.4855524905917
 20
-90.65933604728534
 30
0.0
  0
SEQEND
  5
5CF
330
5CC
100
AcDbEntity
  8
interieur
370
     0
  0
INSERT
  5
5D1
330
1F
100
AcDbEntity
  8
interieur
100
AcDbBlockReference
  2
block 190
 10
0.0
 20
0.0
 30
0.0
  0
INSERT
  5
5D8
330
1F
100
AcDbEntity
  8
interieur
100
AcDbBlockReference
  2
block 191
 10
0.0
 20
0.0
 30
0.0
  0
POLYLINE
  5
5DF
330
1F
100
AcDbEntity
  8
interieur
370
     0
100
AcDb2dPolyline
 66
     1
 10
0.0
 20
0.0
 30
0.0
  0
VERTEX
  5
5E0
330
5DF
100
AcDbEntity
  8
interieur
370
     0
100
AcDbVertex
100
AcDb2dVertex
 10
302.4855524905915
 20
-68.14267554888556
 30
0.0
  0
VERTEX
  5
6DF
330
5DF
100
AcDbEntity
  8
0
100
AcDbVertex
100
AcDb2dVertex
 10
302.4855524905915
 20
-68.14267554888556
 30
0.0
  0
SEQEND
  5
5E1
330
5DF
100
AcDbEntity
  8
interieur
370
     0
  0
INSERT
  5
5E3
330
1F
100
AcDbEntity
  8
interieur
100
AcDbBlockReference
  2
block 192
 10
0.0
 20
0.0
 30
0.0
  0
INSERT
  5
5EB
330
1F
100
AcDbEntity
  8
interieur
100
AcDbBlockReference
  2
block 193
 10
0.0
 20
0.0
 30
0.0
  0
INSERT
  5
5F3
330
1F
100
AcDbEntity
  8
interieur
100
AcDbBlockReference
  2
block 194
 10
0.0
 20
0.0
 30
0.0
  0
INSERT
  5
5FB
330
1F
100
AcDbEntity
  8
interieur
100
AcDbBlockReference
  2
block 195
 10
0.0
 20
0.0
 30
0.0
  0
INSERT
  5
603
330
1F
100
AcDbEntity
  8
interieur
100
AcDbBlockReference
  2
block 196
 10
0.0
 20
0.0
 30
0.0
  0
INSERT
  5
60B
330
1F
100
AcDbEntity
  8
interieur
100
AcDbBlockReference
  2
block 197
 10
0.0
 20
0.0
 30
0.0
  0
INSERT
  5
613
330
1F
100
AcDbEntity
  8
interieur
100
AcDbBlockReference
  2
block 198
 10
0.0
 20
0.0
 30
0.0
  0
INSERT
  5
61B
330
1F
100
AcDbEntity
  8
interieur
100
AcDbBlockReference
  2
block 199
 10
0.0
 20
0.0
 30
0.0
  0
INSERT
  5
623
330
1F
100
AcDbEntity
  8
interieur
100
AcDbBlockReference
  2
block 200
 10
0.0
 20
0.0
 30
0.0
  0
INSERT
  5
62B
330
1F
100
AcDbEntity
  8
interieur
100
AcDbBlockReference
  2
block 201
 10
0.0
 20
0.0
 30
0.0
  0
INSERT
  5
633
330
1F
100
AcDbEntity
  8
interieur
100
AcDbBlockReference
  2
block 202
 10
0.0
 20
0.0
 30
0.0
  0
INSERT
  5
63B
330
1F
100
AcDbEntity
  8
interieur
100
AcDbBlockReference
  2
block 203
 10
0.0
 20
0.0
 30
0.0
  0
INSERT
  5
643
330
1F
100
AcDbEntity
  8
interieur
100
AcDbBlockReference
  2
block 204
 10
0.0
 20
0.0
 30
0.0
  0
INSERT
  5
64B
330
1F
100
AcDbEntity
  8
interieur
100
AcDbBlockReference
  2
block 205
 10
0.0
 20
0.0
 30
0.0
  0
INSERT
  5
653
330
1F
100
AcDbEntity
  8
interieur
100
AcDbBlockReference
  2
block 206
 10
0.0
 20
0.0
 30
0.0
  0
INSERT
  5
65B
330
1F
100
AcDbEntity
  8
interieur
100
AcDbBlockReference
  2
block 207
 10
0.0
 20
0.0
 30
0.0
  0
INSERT
  5
663
330
1F
100
AcDbEntity
  8
interieur
100
AcDbBlockReference
  2
block 208
 10
0.0
 20
0.0
 30
0.0
  0
INSERT
  5
66B
330
1F
100
AcDbEntity
  8
interieur
100
AcDbBlockReference
  2
block 209
 10
0.0
 20
0.0
 30
0.0
  0
INSERT
  5
673
330
1F
100
AcDbEntity
  8
interieur
100
AcDbBlockReference
  2
block 210
 10
0.0
 20
0.0
 30
0.0
  0
INSERT
  5
67B
330
1F
100
AcDbEntity
  8
interieur
100
AcDbBlockReference
  2
block 211
 10
0.0
 20
0.0
 30
0.0
  0
INSERT
  5
683
330
1F
100
AcDbEntity
  8
interieur
100
AcDbBlockReference
  2
block 212
 10
0.0
 20
0.0
 30
0.0
  0
INSERT
  5
68B
330
1F
100
AcDbEntity
  8
interieur
100
AcDbBlockReference
  2
block 213
 10
0.0
 20
0.0
 30
0.0
  0
INSERT
  5
694
330
1F
100
AcDbEntity
  8
Gravure
100
AcDbBlockReference
  2
block 214
 10
0.0
 20
0.0
 30
0.0
  0
ENDSEC
  0
SECTION
  2
OBJECTS
  0
DICTIONARY
  5
C
330
0
100
AcDbDictionary
281
     1
  3
ACAD_GROUP
350
D
  3
ACAD_LAYOUT
350
1A
  3
ACAD_MATERIAL
350
3B
  3
ACAD_MLEADERSTYLE
350
6E1
  3
ACAD_MLINESTYLE
350
17
  3
ACAD_PLOTSETTINGS
350
19
  3
ACAD_PLOTSTYLENAME
350
E
  3
ACAD_TABLESTYLE
350
6E0
  3
ACAD_VISUALSTYLE
350
2A
  0
SUN
  5
3F
330
29
100
AcDbSun
 90
        1
290
     0
 63
     7
421
 16777215
 40
1.0
291
     1
 91
  2455826
 92
 54000000
292
     0
 70
     2
 71
   256
280
     1
  0
DICTIONARY
  5
D
102
{ACAD_REACTORS
330
C
102
}
330
C
100
AcDbDictionary
281
     1
  0
DICTIONARY
  5
1A
102
{ACAD_REACTORS
330
C
102
}
330
C
100
AcDbDictionary
281
     1
  3
Layout1
350
1E
  3
Layout2
350
26
  3
Model
350
22
  0
DICTIONARY
  5
3B
102
{ACAD_REACTORS
330
C
102
}
330
C
100
AcDbDictionary
281
     1
  3
ByBlock
350
3D
  3
ByLayer
350
3C
  3
Global
350
3E
  0
DICTIONARY
  5
6E1
102
{ACAD_REACTORS
330
C
102
}
330
C
100
AcDbDictionary
281
     1
  0
DICTIONARY
  5
17
102
{ACAD_REACTORS
330
C
102
}
330
C
100
AcDbDictionary
281
     1
  3
Standard
350
18
  0
DICTIONARY
  5
19
102
{ACAD_REACTORS
330
C
102
}
330
C
100
AcDbDictionary
281
     1
  0
ACDBDICTIONARYWDFLT
  5
E
102
{ACAD_REACTORS
330
C
102
}
330
C
100
AcDbDictionary
281
     1
  3
Normal
350
F
100
AcDbDictionaryWithDefault
340
F
  0
DICTIONARY
  5
6E0
102
{ACAD_REACTORS
330
C
102
}
330
C
100
AcDbDictionary
281
     1
  0
DICTIONARY
  5
2A
102
{ACAD_REACTORS
330
C
102
}
330
C
100
AcDbDictionary
281
     1
  3
2dWireframe
350
2F
  3
3D Hidden
350
31
  3
3dWireframe
350
30
  3
Basic
350
32
  3
Brighten
350
36
  3
ColorChange
350
3A
  3
Conceptual
350
34
  3
Dim
350
35
  3
Facepattern
350
39
  3
Flat
350
2B
  3
FlatWithEdges
350
2C
  3
Gouraud
350
2D
  3
GouraudWithEdges
350
2E
  3
Linepattern
350
38
  3
Realistic
350
33
  3
Thicken
350
37
  0
LAYOUT
  5
1E
102
{ACAD_REACTORS
330
1A
102
}
330
1A
100
AcDbPlotSettings
  1

  2
none_device
  4

  6

 40
0.0
 41
0.0
 42
0.0
 43
0.0
 44
0.0
 45
0.0
 46
0.0
 47
0.0
 48
0.0
 49
0.0
140
0.0
141
0.0
142
1.0
143
1.0
 70
   688
 72
     0
 73
     0
 74
     5
  7

 75
    16
 76
     0
 77
     2
 78
   300
147
1.0
148
0.0
149
0.0
100
AcDbLayout
  1
Layout1
 70
     1
 71
     1
 10
0.0
 20
0.0
 11
12.0
 21
9.0
 12
0.0
 22
0.0
 32
0.0
 14
1.000000000000000E+20
 24
1.000000000000000E+20
 34
1.000000000000000E+20
 15
-1.000000000000000E+20
 25
-1.000000000000000E+20
 35
-1.000000000000000E+20
146
0.0
 13
0.0
 23
0.0
 33
0.0
 16
1.0
 26
0.0
 36
0.0
 17
0.0
 27
1.0
 37
0.0
 76
     0
330
1B
  0
LAYOUT
  5
26
102
{ACAD_REACTORS
330
1A
102
}
330
1A
100
AcDbPlotSettings
  1

  2
none_device
  4

  6

 40
0.0
 41
0.0
 42
0.0
 43
0.0
 44
0.0
 45
0.0
 46
0.0
 47
0.0
 48
0.0
 49
0.0
140
0.0
141
0.0
142
1.0
143
1.0
 70
   688
 72
     0
 73
     0
 74
     5
  7

 75
    16
 76
     0
 77
     2
 78
   300
147
1.0
148
0.0
149
0.0
100
AcDbLayout
  1
Layout2
 70
     1
 71
     2
 10
0.0
 20
0.0
 11
0.0
 21
0.0
 12
0.0
 22
0.0
 32
0.0
 14
0.0
 24
0.0
 34
0.0
 15
0.0
 25
0.0
 35
0.0
146
0.0
 13
0.0
 23
0.0
 33
0.0
 16
1.0
 26
0.0
 36
0.0
 17
0.0
 27
1.0
 37
0.0
 76
     0
330
23
  0
LAYOUT
  5
22
102
{ACAD_REACTORS
330
1A
102
}
330
1A
100
AcDbPlotSettings
  1

  2
none_device
  4

  6

 40
0.0
 41
0.0
 42
0.0
 43
0.0
 44
0.0
 45
0.0
 46
0.0
 47
0.0
 48
0.0
 49
0.0
140
0.0
141
0.0
142
1.0
143
1.0
 70
  1712
 72
     0
 73
     0
 74
     0
  7

 75
     0
 76
     0
 77
     2
 78
   300
147
1.0
148
0.0
149
0.0
100
AcDbLayout
  1
Model
 70
     1
 71
     0
 10
0.0
 20
0.0
 11
12.0
 21
9.0
 12
0.0
 22
0.0
 32
0.0
 14
1.000000000000000E+20
 24
1.000000000000000E+20
 34
1.000000000000000E+20
 15
-1.000000000000000E+20
 25
-1.000000000000000E+20
 35
-1.000000000000000E+20
146
0.0
 13
0.0
 23
0.0
 33
0.0
 16
1.0
 26
0.0
 36
0.0
 17
0.0
 27
1.0
 37
0.0
 76
     0
330
1F
331
29
  0
MATERIAL
  5
3D
102
{ACAD_REACTORS
330
3B
102
}
330
3B
100
AcDbMaterial
  1
ByBlock
 72
     1
 94
      127
  0
MATERIAL
  5
3C
102
{ACAD_REACTORS
330
3B
102
}
330
3B
100
AcDbMaterial
  1
ByLayer
 72
     1
 94
      127
  0
MATERIAL
  5
3E
102
{ACAD_REACTORS
330
3B
102
}
330
3B
100
AcDbMaterial
  1
Global
 72
     1
 94
      127
  0
MLINESTYLE
  5
18
102
{ACAD_REACTORS
330
17
102
}
330
17
100
AcDbMlineStyle
  2
Standard
 70
     0
  3

 62
   256
 51
90.0
 52
90.0
 71
     2
 49
0.5
 62
   256
  6
BYLAYER
 49
-0.5
 62
   256
  6
BYLAYER
  0
ACDBPLACEHOLDER
  5
F
102
{ACAD_REACTORS
330
E
102
}
330
E
  0
VISUALSTYLE
  5
2F
102
{ACAD_REACTORS
330
2A
102
}
330
2A
100
AcDbVisualStyle
  2
2dWireframe
 70
     4
177
     2
291
     0
 71
     0
176
     1
 72
     2
176
     1
 73
     0
176
     1
 90
        0
176
     1
 40
-0.6
176
     1
 41
-30.0
176
     1
 62
     5
 63
     7
421
 16777215
176
     1
 74
     1
176
     1
 91
        4
176
     1
 64
     7
176
     1
 65
   257
176
     1
 75
     1
176
     1
175
     1
176
     1
 42
1.0
176
     1
 92
        0
176
     1
 66
   257
176
     1
 43
1.0
176
     1
 76
     1
176
     1
 77
     6
176
     1
 78
     2
176
     1
 67
     7
176
     1
 79
     5
176
     1
170
     0
176
     1
171
     0
176
     1
290
     0
176
     1
 93
        1
176
     1
 44
0.0
176
     1
173
     0
176
     1
  0
VISUALSTYLE
  5
31
102
{ACAD_REACTORS
330
2A
102
}
330
2A
100
AcDbVisualStyle
  2
3D Hidden
 70
     6
177
     2
291
     0
 71
     1
176
     1
 72
     2
176
     1
 73
     2
176
     1
 90
        0
176
     1
 40
-0.6
176
     1
 41
-30.0
176
     1
 62
     5
 63
     7
421
 16777215
176
     1
 74
     2
176
     1
 91
        2
176
     1
 64
     7
176
     1
 65
   257
176
     1
 75
     2
176
     1
175
     1
176
     1
 42
40.0
176
     1
 92
        0
176
     1
 66
   257
176
     1
 43
1.0
176
     1
 76
     1
176
     1
 77
     6
176
     1
 78
     2
176
     1
 67
     7
176
     1
 79
     3
176
     1
170
     0
176
     1
171
     0
176
     1
290
     0
176
     1
 93
        1
176
     1
 44
0.0
176
     1
173
     0
176
     1
  0
VISUALSTYLE
  5
30
102
{ACAD_REACTORS
330
2A
102
}
330
2A
100
AcDbVisualStyle
  2
3dWireframe
 70
     5
177
     2
291
     0
 71
     0
176
     1
 72
     2
176
     1
 73
     0
176
     1
 90
        0
176
     1
 40
-0.6
176
     1
 41
-30.0
176
     1
 62
     5
 63
     7
421
 16777215
176
     1
 74
     1
176
     1
 91
        4
176
     1
 64
     7
176
     1
 65
   257
176
     1
 75
     1
176
     1
175
     1
176
     1
 42
1.0
176
     1
 92
        0
176
     1
 66
   257
176
     1
 43
1.0
176
     1
 76
     1
176
     1
 77
     6
176
     1
 78
     2
176
     1
 67
     7
176
     1
 79
     5
176
     1
170
     0
176
     1
171
     0
176
     1
290
     0
176
     1
 93
        1
176
     1
 44
0.0
176
     1
173
     0
176
     1
  0
VISUALSTYLE
  5
32
102
{ACAD_REACTORS
330
2A
102
}
330
2A
100
AcDbVisualStyle
  2
Basic
 70
     7
177
     2
291
     1
 71
     1
176
     1
 72
     0
176
     1
 73
     1
176
     1
 90
        0
176
     1
 40
-0.6
176
     1
 41
-30.0
176
     1
 62
     5
 63
     7
421
 16777215
176
     1
 74
     0
176
     1
 91
        4
176
     1
 64
     7
176
     1
 65
   257
176
     1
 75
     1
176
     1
175
     1
176
     1
 42
1.0
176
     1
 92
        8
176
     1
 66
     7
176
     1
 43
1.0
176
     1
 76
     1
176
     1
 77
     6
176
     1
 78
     2
176
     1
 67
     7
176
     1
 79
     5
176
     1
170
     0
176
     1
171
     0
176
     1
290
     0
176
     1
 93
        1
176
     1
 44
0.0
176
     1
173
     0
176
     1
  0
VISUALSTYLE
  5
36
102
{ACAD_REACTORS
330
2A
102
}
330
2A
100
AcDbVisualStyle
  2
Brighten
 70
    12
177
     2
291
     1
 71
     2
176
     1
 72
     2
176
     1
 73
     0
176
     1
 90
        0
176
     1
 40
-0.6
176
     1
 41
-30.0
176
     1
 62
     5
 63
     7
421
 16777215
176
     1
 74
     1
176
     1
 91
        4
176
     1
 64
     7
176
     1
 65
   257
176
     1
 75
     1
176
     1
175
     1
176
     1
 42
1.0
176
     1
 92
        8
176
     1
 66
     7
176
     1
 43
1.0
176
     1
 76
     1
176
     1
 77
     6
176
     1
 78
     2
176
     1
 67
     7
176
     1
 79
     5
176
     1
170
     0
176
     1
171
     0
176
     1
290
     0
176
     1
 93
        1
176
     1
 44
50.0
176
     1
173
     0
176
     1
  0
VISUALSTYLE
  5
3A
102
{ACAD_REACTORS
330
2A
102
}
330
2A
100
AcDbVisualStyle
  2
ColorChange
 70
    16
177
     2
291
     1
 71
     2
176
     1
 72
     2
176
     1
 73
     3
176
     1
 90
        0
176
     1
 40
-0.6
176
     1
 41
-30.0
176
     1
 62
     5
 63
     8
421
  8421504
176
     1
 74
     1
176
     1
 91
        4
176
     1
 64
     7
176
     1
 65
   257
176
     1
 75
     1
176
     1
175
     1
176
     1
 42
1.0
176
     1
 92
        8
176
     1
 66
     8
424
  8421504
176
     1
 43
1.0
176
     1
 76
     1
176
     1
 77
     6
176
     1
 78
     2
176
     1
 67
     7
176
     1
 79
     5
176
     1
170
     0
176
     1
171
     0
176
     1
290
     0
176
     1
 93
        1
176
     1
 44
0.0
176
     1
173
     0
176
     1
  0
VISUALSTYLE
  5
34
102
{ACAD_REACTORS
330
2A
102
}
330
2A
100
AcDbVisualStyle
  2
Conceptual
 70
     9
177
     2
291
     0
 71
     3
176
     1
 72
     2
176
     1
 73
     0
176
     1
 90
        0
176
     1
 40
-0.6
176
     1
 41
-30.0
176
     1
 62
     5
 63
     7
421
 16777215
176
     1
 74
     2
176
     1
 91
        2
176
     1
 64
     7
176
     1
 65
   257
176
     1
 75
     1
176
     1
175
     1
176
     1
 42
40.0
176
     1
 92
        8
176
     1
 66
     7
176
     1
 43
1.0
176
     1
 76
     1
176
     1
 77
     6
176
     1
 78
     2
176
     1
 67
     7
176
     1
 79
     3
176
     1
170
     0
176
     1
171
     0
176
     1
290
     0
176
     1
 93
        1
176
     1
 44
0.0
176
     1
173
     0
176
     1
  0
VISUALSTYLE
  5
35
102
{ACAD_REACTORS
330
2A
102
}
330
2A
100
AcDbVisualStyle
  2
Dim
 70
    11
177
     2
291
     1
 71
     2
176
     1
 72
     2
176
     1
 73
     0
176
     1
 90
        0
176
     1
 40
-0.6
176
     1
 41
-30.0
176
     1
 62
     5
 63
     7
421
 16777215
176
     1
 74
     1
176
     1
 91
        4
176
     1
 64
     7
176
     1
 65
   257
176
     1
 75
     1
176
     1
175
     1
176
     1
 42
1.0
176
     1
 92
        8
176
     1
 66
     7
176
     1
 43
1.0
176
     1
 76
     1
176
     1
 77
     6
176
     1
 78
     2
176
     1
 67
     7
176
     1
 79
     5
176
     1
170
     0
176
     1
171
     0
176
     1
290
     0
176
     1
 93
        1
176
     1
 44
-50.0
176
     1
173
     0
176
     1
  0
VISUALSTYLE
  5
39
102
{ACAD_REACTORS
330
2A
102
}
330
2A
100
AcDbVisualStyle
  2
Facepattern
 70
    15
177
     2
291
     1
 71
     2
176
     1
 72
     2
176
     1
 73
     0
176
     1
 90
        0
176
     1
 40
-0.6
176
     1
 41
-30.0
176
     1
 62
     5
 63
     7
421
 16777215
176
     1
 74
     1
176
     1
 91
        4
176
     1
 64
     7
176
     1
 65
   257
176
     1
 75
     1
176
     1
175
     1
176
     1
 42
1.0
176
     1
 92
        8
176
     1
 66
     7
176
     1
 43
1.0
176
     1
 76
     1
176
     1
 77
     6
176
     1
 78
     2
176
     1
 67
     7
176
     1
 79
     5
176
     1
170
     0
176
     1
171
     0
176
     1
290
     0
176
     1
 93
        1
176
     1
 44
0.0
176
     1
173
     0
176
     1
  0
VISUALSTYLE
  5
2B
102
{ACAD_REACTORS
330
2A
102
}
330
2A
100
AcDbVisualStyle
  2
Flat
 70
     0
177
     2
291
     1
 71
     2
176
     1
 72
     1
176
     1
 73
     1
176
     1
 90
        2
176
     1
 40
-0.6
176
     1
 41
30.0
176
     1
 62
     5
 63
     7
421
 16777215
176
     1
 74
     0
176
     1
 91
        4
176
     1
 64
     7
176
     1
 65
   257
176
     1
 75
     1
176
     1
175
     1
176
     1
 42
1.0
176
     1
 92
        8
176
     1
 66
     7
176
     1
 43
1.0
176
     1
 76
     1
176
     1
 77
     6
176
     1
 78
     2
176
     1
 67
     7
176
     1
 79
     5
176
     1
170
     0
176
     1
171
     0
176
     1
290
     0
176
     1
 93
       13
176
     1
 44
0.0
176
     1
173
     0
176
     1
  0
VISUALSTYLE
  5
2C
102
{ACAD_REACTORS
330
2A
102
}
330
2A
100
AcDbVisualStyle
  2
FlatWithEdges
 70
     1
177
     2
291
     1
 71
     2
176
     1
 72
     1
176
     1
 73
     1
176
     1
 90
        2
176
     1
 40
-0.6
176
     1
 41
30.0
176
     1
 62
     5
 63
     7
421
 16777215
176
     1
 74
     1
176
     1
 91
        4
176
     1
 64
     7
176
     1
 65
   257
176
     1
 75
     1
176
     1
175
     1
176
     1
 42
1.0
176
     1
 92
        0
176
     1
 66
   257
176
     1
 43
1.0
176
     1
 76
     1
176
     1
 77
     6
176
     1
 78
     2
176
     1
 67
     7
176
     1
 79
     5
176
     1
170
     0
176
     1
171
     0
176
     1
290
     0
176
     1
 93
       13
176
     1
 44
0.0
176
     1
173
     0
176
     1
  0
VISUALSTYLE
  5
2D
102
{ACAD_REACTORS
330
2A
102
}
330
2A
100
AcDbVisualStyle
  2
Gouraud
 70
     2
177
     2
291
     1
 71
     2
176
     1
 72
     2
176
     1
 73
     1
176
     1
 90
        2
176
     1
 40
-0.6
176
     1
 41
30.0
176
     1
 62
     5
 63
     7
421
 16777215
176
     1
 74
     0
176
     1
 91
        4
176
     1
 64
     7
176
     1
 65
   257
176
     1
 75
     1
176
     1
175
     1
176
     1
 42
1.0
176
     1
 92
        0
176
     1
 66
     7
176
     1
 43
1.0
176
     1
 76
     1
176
     1
 77
     6
176
     1
 78
     2
176
     1
 67
     7
176
     1
 79
     5
176
     1
170
     0
176
     1
171
     0
176
     1
290
     0
176
     1
 93
       13
176
     1
 44
0.0
176
     1
173
     0
176
     1
  0
VISUALSTYLE
  5
2E
102
{ACAD_REACTORS
330
2A
102
}
330
2A
100
AcDbVisualStyle
  2
GouraudWithEdges
 70
     3
177
     2
291
     1
 71
     2
176
     1
 72
     2
176
     1
 73
     1
176
     1
 90
        2
176
     1
 40
-0.6
176
     1
 41
30.0
176
     1
 62
     5
 63
     7
421
 16777215
176
     1
 74
     1
176
     1
 91
        4
176
     1
 64
     7
176
     1
 65
   257
176
     1
 75
     1
176
     1
175
     1
176
     1
 42
1.0
176
     1
 92
        0
176
     1
 66
   257
176
     1
 43
1.0
176
     1
 76
     1
176
     1
 77
     6
176
     1
 78
     2
176
     1
 67
     7
176
     1
 79
     5
176
     1
170
     0
176
     1
171
     0
176
     1
290
     0
176
     1
 93
       13
176
     1
 44
0.0
176
     1
173
     0
176
     1
  0
VISUALSTYLE
  5
38
102
{ACAD_REACTORS
330
2A
102
}
330
2A
100
AcDbVisualStyle
  2
Linepattern
 70
    14
177
     2
291
     1
 71
     2
176
     1
 72
     2
176
     1
 73
     0
176
     1
 90
        0
176
     1
 40
-0.6
176
     1
 41
-30.0
176
     1
 62
     5
 63
     7
421
 16777215
176
     1
 74
     1
176
     1
 91
        4
176
     1
 64
     7
176
     1
 65
   257
176
     1
 75
     7
176
     1
175
     7
176
     1
 42
1.0
176
     1
 92
        8
176
     1
 66
     7
176
     1
 43
1.0
176
     1
 76
     1
176
     1
 77
     6
176
     1
 78
     2
176
     1
 67
     7
176
     1
 79
     5
176
     1
170
     0
176
     1
171
     0
176
     1
290
     0
176
     1
 93
        1
176
     1
 44
0.0
176
     1
173
     0
176
     1
  0
VISUALSTYLE
  5
33
102
{ACAD_REACTORS
330
2A
102
}
330
2A
100
AcDbVisualStyle
  2
Realistic
 70
     8
177
     2
291
     0
 71
     2
176
     1
 72
     2
176
     1
 73
     0
176
     1
 90
        0
176
     1
 40
-0.6
176
     1
 41
-30.0
176
     1
 62
     5
 63
     7
421
 16777215
176
     1
 74
     1
176
     1
 91
        0
176
     1
 64
     7
176
     1
 65
   257
176
     1
 75
     1
176
     1
175
     1
176
     1
 42
1.0
176
     1
 92
        8
176
     1
 66
     8
424
  7895160
176
     1
 43
1.0
176
     1
 76
     1
176
     1
 77
     6
176
     1
 78
     2
176
     1
 67
     7
176
     1
 79
     5
176
     1
170
     0
176
     1
171
     0
176
     1
290
     0
176
     1
 93
       13
176
     1
 44
0.0
176
     1
173
     0
176
     1
  0
VISUALSTYLE
  5
37
102
{ACAD_REACTORS
330
2A
102
}
330
2A
100
AcDbVisualStyle
  2
Thicken
 70
    13
177
     2
291
     1
 71
     2
176
     1
 72
     2
176
     1
 73
     0
176
     1
 90
        0
176
     1
 40
-0.6
176
     1
 41
-30.0
176
     1
 62
     5
 63
     7
421
 16777215
176
     1
 74
     1
176
     1
 91
        4
176
     1
 64
     7
176
     1
 65
   257
176
     1
 75
     1
176
     1
175
     1
176
     1
 42
1.0
176
     1
 92
       12
176
     1
 66
     7
176
     1
 43
1.0
176
     1
 76
     1
176
     1
 77
     6
176
     1
 78
     2
176
     1
 67
     7
176
     1
 79
     5
176
     1
170
     0
176
     1
171
     0
176
     1
290
     0
176
     1
 93
        1
176
     1
 44
0.0
176
     1
173
     0
176
     1
  0
ENDSEC
  0
EOF
