  0
SECTION
  2
HEADER
  9
$ACADVER
  1
AC1009
  9
$DWGCODEPAGE
  3
ansi_1252
  9
$INSBASE
 10
0.0
 20
0.0
 30
0.0
  9
$EXTMIN
 10
-142.5
 20
-124.2794549147
 30
0.0
  9
$EXTMAX
 10
89.6179221362
 20
124.2794549147
 30
0.0
  9
$LIMMIN
 10
0.0
 20
0.0
  9
$LIMMAX
 10
420.0
 20
297.0
  9
$ORTHOMODE
 70
     0
  9
$REGENMODE
 70
     1
  9
$FILLMODE
 70
     1
  9
$QTEXTMODE
 70
     0
  9
$MIRRTEXT
 70
     1
  9
$DRAGMODE
 70
     2
  9
$LTSCALE
 40
1.0
  9
$OSMODE
 70
    37
  9
$ATTMODE
 70
     1
  9
$TEXTSIZE
 40
3.5
  9
$TRACEWID
 40
1.0
  9
$TEXTSTYLE
  7
STANDARD
  9
$CLAYER
  8
0
  9
$CELTYPE
  6
BYLAYER
  9
$CECOLOR
 62
   256
  9
$DIMSCALE
 40
1.0
  9
$DIMASZ
 40
3.302
  9
$DIMEXO
 40
1.0
  9
$DIMDLI
 40
3.75
  9
$DIMRND
 40
0.0
  9
$DIMDLE
 40
0.0
  9
$DIMEXE
 40
1.0
  9
$DIMTP
 40
0.0
  9
$DIMTM
 40
0.0
  9
$DIMTXT
 40
3.5
  9
$DIMCEN
 40
2.5
  9
$DIMTSZ
 40
0.0
  9
$DIMTOL
 70
     0
  9
$DIMLIM
 70
     0
  9
$DIMTIH
 70
     1
  9
$DIMTOH
 70
     1
  9
$DIMSE1
 70
     0
  9
$DIMSE2
 70
     0
  9
$DIMTAD
 70
     1
  9
$DIMZIN
 70
     0
  9
$DIMBLK
  1

  9
$DIMASO
 70
     1
  9
$DIMSHO
 70
     1
  9
$DIMPOST
  1

  9
$DIMAPOST
  1

  9
$DIMALT
 70
     0
  9
$DIMALTD
 70
     3
  9
$DIMALTF
 40
0.0393700787
  9
$DIMLFAC
 40
1.0
  9
$DIMTOFL
 70
     1
  9
$DIMTVP
 40
0.0
  9
$DIMTIX
 70
     0
  9
$DIMSOXD
 70
     0
  9
$DIMSAH
 70
     0
  9
$DIMBLK1
  1

  9
$DIMBLK2
  1

  9
$DIMSTYLE
  2
ISO-25
  9
$DIMCLRD
 70
     0
  9
$DIMCLRE
 70
     0
  9
$DIMCLRT
 70
     0
  9
$DIMTFAC
 40
1.0
  9
$DIMGAP
 40
1.524
  9
$LUNITS
 70
     2
  9
$LUPREC
 70
     2
  9
$SKETCHINC
 40
1.0
  9
$FILLETRAD
 40
10.0
  9
$AUNITS
 70
     0
  9
$AUPREC
 70
     2
  9
$MENU
  1
.
  9
$ELEVATION
 40
0.0
  9
$PELEVATION
 40
0.0
  9
$THICKNESS
 40
0.0
  9
$LIMCHECK
 70
     0
  9
$CHAMFERA
 40
0.0
  9
$CHAMFERB
 40
0.0
  9
$SKPOLY
 70
     0
  9
$TDCREATE
 40
2456762.45236419
  9
$TDUPDATE
 40
2456762.452377234
  9
$TDINDWG
 40
0.0000000116
  9
$TDUSRTIMER
 40
0.0000000116
  9
$USRTIMER
 70
     1
  9
$ANGBASE
 50
0.0
  9
$ANGDIR
 70
     0
  9
$PDMODE
 70
     0
  9
$PDSIZE
 40
-1.0
  9
$PLINEWID
 40
0.0
  9
$COORDS
 70
     1
  9
$SPLFRAME
 70
     0
  9
$SPLINETYPE
 70
     6
  9
$SPLINESEGS
 70
     8
  9
$ATTDIA
 70
     0
  9
$ATTREQ
 70
     1
  9
$HANDLING
 70
     1
  9
$HANDSEED
  5
8D
  9
$SURFTAB1
 70
     6
  9
$SURFTAB2
 70
     6
  9
$SURFTYPE
 70
     6
  9
$SURFU
 70
     6
  9
$SURFV
 70
     6
  9
$UCSNAME
  2

  9
$UCSORG
 10
0.0
 20
0.0
 30
0.0
  9
$UCSXDIR
 10
1.0
 20
0.0
 30
0.0
  9
$UCSYDIR
 10
0.0
 20
1.0
 30
0.0
  9
$PUCSNAME
  2

  9
$PUCSORG
 10
0.0
 20
0.0
 30
0.0
  9
$PUCSXDIR
 10
1.0
 20
0.0
 30
0.0
  9
$PUCSYDIR
 10
0.0
 20
1.0
 30
0.0
  9
$USERI1
 70
     0
  9
$USERI2
 70
     0
  9
$USERI3
 70
     0
  9
$USERI4
 70
     0
  9
$USERI5
 70
     0
  9
$USERR1
 40
0.0
  9
$USERR2
 40
0.0
  9
$USERR3
 40
0.0
  9
$USERR4
 40
0.0
  9
$USERR5
 40
0.0
  9
$WORLDVIEW
 70
     1
  9
$SHADEDGE
 70
     3
  9
$SHADEDIF
 70
    70
  9
$TILEMODE
 70
     1
  9
$MAXACTVP
 70
    64
  9
$PLIMCHECK
 70
     0
  9
$PEXTMIN
 10
1.0000000000E+20
 20
1.0000000000E+20
 30
1.0000000000E+20
  9
$PEXTMAX
 10
-1.0000000000E+20
 20
-1.0000000000E+20
 30
-1.0000000000E+20
  9
$PLIMMIN
 10
0.0
 20
0.0
  9
$PLIMMAX
 10
420.0
 20
297.0
  9
$UNITMODE
 70
     0
  9
$VISRETAIN
 70
     1
  9
$PLINEGEN
 70
     0
  9
$PSLTSCALE
 70
     1
  0
ENDSEC
  0
SECTION
  2
TABLES
  0
TABLE
  2
VPORT
 70
     1
  0
VPORT
  2
*ACTIVE
 70
     0
 10
0.0
 20
0.0
 11
1.0
 21
1.0
 12
-26.4410389319
 22
0.0
 13
0.0
 23
0.0
 14
10.0
 24
10.0
 15
10.0
 25
10.0
 16
0.0
 26
0.0
 36
1.0
 17
0.0
 27
0.0
 37
0.0
 40
253.530088026
 41
0.9338547642
 42
50.0
 43
0.0
 44
0.0
 50
0.0
 51
0.0
 71
     0
 72
   100
 73
     1
 74
     3
 75
     0
 76
     0
 77
     0
 78
     0
  0
ENDTAB
  0
TABLE
  2
LTYPE
 70
     6
  0
LTYPE
  2
CONTINUOUS
 70
     0
  3
Solid line
 72
    65
 73
     0
 40
0.0
  0
LTYPE
  2
HIDDEN
 70
     0
  3
Hidden __ __ __ __ __ __ __ __ __ __ __ __ __ __
 72
    65
 73
     2
 40
1.905
 49
1.27
 49
-0.635
  0
LTYPE
  2
PHANTOM
 70
     0
  3
Phantom ______  __  __  ______  __  __  ______
 72
    65
 73
     6
 40
12.7
 49
6.35
 49
-1.27
 49
1.27
 49
-1.27
 49
1.27
 49
-1.27
  0
LTYPE
  2
CENTER
 70
     0
  3
Center ____ _ ____ _ ____ _ ____ _ ____ _ ____
 72
    65
 73
     4
 40
10.16
 49
6.35
 49
-1.27
 49
1.27
 49
-1.27
  0
LTYPE
  2
CENTERX2
 70
     0
  3
Center (2x) ________  __  ________  __  _____
 72
    65
 73
     4
 40
20.32
 49
12.7
 49
-2.54
 49
2.54
 49
-2.54
  0
LTYPE
  2
DOT2
 70
     0
  3
Dot (.5x) ........................................
 72
    65
 73
     2
 40
0.635
 49
0.0
 49
-0.635
  0
ENDTAB
  0
TABLE
  2
LAYER
 70
     1
  0
LAYER
  2
0
 70
     0
 62
     7
  6
CONTINUOUS
  0
ENDTAB
  0
TABLE
  2
STYLE
 70
     1
  0
STYLE
  2
STANDARD
 70
     0
 40
0.0
 41
1.0
 50
0.0
 71
     0
 42
3.5
  3
txt
  4

  0
ENDTAB
  0
TABLE
  2
VIEW
 70
     0
  0
ENDTAB
  0
TABLE
  2
UCS
 70
     0
  0
ENDTAB
  0
TABLE
  2
APPID
 70
     1
  0
APPID
  2
ACAD
 70
     0
  0
ENDTAB
  0
TABLE
  2
DIMSTYLE
 70
     1
  0
DIMSTYLE
  2
ISO-25
 70
     0
  3

  4

  5

  6

  7

 40
1.0
 41
2.5
 42
0.625
 43
3.75
 44
1.25
 45
0.0
 46
0.0
 47
0.0
 48
0.0
140
2.5
141
2.5
142
0.0
143
0.0393700787
144
1.0
145
0.0
146
1.0
147
0.625
 71
     0
 72
     0
 73
     0
 74
     0
 75
     0
 76
     0
 77
     1
 78
     8
170
     0
171
     3
172
     1
173
     0
174
     0
175
     0
176
     0
177
     0
178
     0
  0
ENDTAB
  0
ENDSEC
  0
SECTION
  2
BLOCKS
  0
BLOCK
  8
0
  2
$MODEL_SPACE
 70
     0
 10
0.0
 20
0.0
 30
0.0
  3
$MODEL_SPACE
  1

  0
ENDBLK
  5
21
  8
0
  0
BLOCK
 67
     1
  8
0
  2
$PAPER_SPACE
 70
     0
 10
0.0
 20
0.0
 30
0.0
  3
$PAPER_SPACE
  1

  0
ENDBLK
  5
1D
 67
     1
  8
0
  0
ENDSEC
  0
SECTION
  2
ENTITIES
  0
CIRCLE
  5
6F
  8
0
  6
CONTINUOUS
 62
     7
 10
50.0
 20
-86.6025403784
 30
0.0
 40
1.500000000000007
  0
CIRCLE
  5
70
  8
0
  6
CONTINUOUS
 62
     7
 10
50.0
 20
86.6025403784
 30
0.0
 40
1.500000000000007
  0
CIRCLE
  5
71
  8
0
  6
CONTINUOUS
 62
     7
 10
-100.0
 20
0.0
 30
0.0
 40
1.5
  0
CIRCLE
  5
72
  8
0
  6
CONTINUOUS
 62
     7
 10
68.0
 20
-117.7794549147
 30
0.0
 40
1.499999999999986
  0
CIRCLE
  5
73
  8
0
  6
CONTINUOUS
 62
     7
 10
68.0
 20
117.7794549147
 30
0.0
 40
1.500000000000014
  0
CIRCLE
  5
74
  8
0
  6
CONTINUOUS
 62
     7
 10
79.4855715851
 20
-92.6730484541
 30
0.0
 40
3.900000000000006
  0
CIRCLE
  5
75
  8
0
  6
CONTINUOUS
 62
     7
 10
40.5144284148
 20
-115.1730484541
 30
0.0
 40
3.899999999999999
  0
CIRCLE
  5
76
  8
0
  6
CONTINUOUS
 62
     7
 10
40.5144284149
 20
115.1730484541
 30
0.0
 40
3.900000000000006
  0
CIRCLE
  5
77
  8
0
  6
CONTINUOUS
 62
     7
 10
79.4855715852
 20
92.6730484541
 30
0.0
 40
3.899999999999991
  0
CIRCLE
  5
78
  8
0
  6
CONTINUOUS
 62
     7
 10
-136.0
 20
0.0
 30
0.0
 40
1.5
  0
CIRCLE
  5
79
  8
0
  6
CONTINUOUS
 62
     7
 10
-120.0
 20
-22.5
 30
0.0
 40
3.900000000000006
  0
CIRCLE
  5
7A
  8
0
  6
CONTINUOUS
 62
     7
 10
-120.0
 20
22.5
 30
0.0
 40
3.900000000000006
  0
ARC
  5
7B
  8
0
  6
CONTINUOUS
 62
     7
 10
-107.5242087557
 20
-18.308721302
 30
0.0
 40
20.00000000000007
 50
213.7591810213
 51
240.0
  0
LINE
  5
7C
  8
0
  6
CONTINUOUS
 62
     7
 10
-117.5242087557
 20
-35.6292293777
 30
0.0
 11
27.9062866195
 21
-119.5935650309
 31
0.0
  0
ARC
  5
7D
  8
0
  6
CONTINUOUS
 62
     7
 10
37.9062866195
 20
-102.2730569553
 30
0.0
 40
20.00000000000007
 50
240.0
 51
266.2408189787
  0
LINE
  5
7E
  8
0
  6
CONTINUOUS
 62
     7
 10
36.5950261324
 20
-122.2300255611
 30
0.0
 11
67.5738403417
 21
-124.2654697116
 31
0.0
  0
ARC
  5
7F
  8
0
  6
CONTINUOUS
 62
     7
 10
68.0
 20
-117.7794549147
 30
0.0
 40
6.500000000000036
 50
266.2408189787
 51
333.7591810213
  0
LINE
  5
80
  8
0
  6
CONTINUOUS
 62
     7
 10
73.8301334126
 20
-120.653397223
 30
0.0
 11
87.5567941749
 21
-92.8072350634
 31
0.0
  0
ARC
  5
81
  8
0
  6
CONTINUOUS
 62
     7
 10
69.6179221362
 20
-83.9643356533
 30
0.0
 40
20.00000000000004
 50
333.7591810213
 51
0.0
  0
LINE
  5
82
  8
0
  6
CONTINUOUS
 62
     7
 10
89.6179221362
 20
-83.9643356533
 30
0.0
 11
89.6179221362
 21
83.9643356533
 31
0.0
  0
ARC
  5
83
  8
0
  6
CONTINUOUS
 62
     7
 10
69.6179221362
 20
83.9643356533
 30
0.0
 40
20.00000000000007
 50
0.0
 51
26.2408189787
  0
LINE
  5
84
  8
0
  6
CONTINUOUS
 62
     7
 10
87.5567941749
 20
92.8072350634
 30
0.0
 11
73.8301334126
 21
120.653397223
 31
0.0
  0
ARC
  5
85
  8
0
  6
CONTINUOUS
 62
     7
 10
68.0
 20
117.7794549147
 30
0.0
 40
6.500000000000025
 50
26.2408189787
 51
93.7591810213
  0
LINE
  5
86
  8
0
  6
CONTINUOUS
 62
     7
 10
67.5738403417
 20
124.2654697116
 30
0.0
 11
36.5950261324
 21
122.2300255611
 31
0.0
  0
ARC
  5
87
  8
0
  6
CONTINUOUS
 62
     7
 10
37.9062866195
 20
102.2730569553
 30
0.0
 40
20.00000000000002
 50
93.7591810213
 51
120.0
  0
LINE
  5
88
  8
0
  6
CONTINUOUS
 62
     7
 10
27.9062866195
 20
119.5935650309
 30
0.0
 11
-117.5242087557
 21
35.6292293777
 31
0.0
  0
ARC
  5
89
  8
0
  6
CONTINUOUS
 62
     7
 10
-107.5242087557
 20
18.308721302
 30
0.0
 40
20.00000000000007
 50
120.0
 51
146.2408189787
  0
LINE
  5
8A
  8
0
  6
CONTINUOUS
 62
     7
 10
-124.1518203073
 20
29.4227904977
 30
0.0
 11
-141.4039737543
 21
3.6120724886
 31
0.0
  0
ARC
  5
8B
  8
0
  6
CONTINUOUS
 62
     7
 10
-136.0
 20
0.0
 30
0.0
 40
6.500000000000016
 50
146.2408189787
 51
213.7591810213
  0
LINE
  5
8C
  8
0
  6
CONTINUOUS
 62
     7
 10
-141.4039737543
 20
-3.6120724886
 30
0.0
 11
-124.1518203073
 21
-29.4227904977
 31
0.0
  0
ENDSEC
  0
EOF
