  0
SECTION
  2
HEADER
  9
$ACADVER
  1
AC1009
  9
$DWGCODEPAGE
  3
ansi_1252
  9
$INSBASE
 10
0.0
 20
0.0
 30
0.0
  9
$EXTMIN
 10
-130.0
 20
-126.2073279453
 30
0.0
  9
$EXTMAX
 10
93.0118510268
 20
126.2073279453
 30
0.0
  9
$LIMMIN
 10
0.0
 20
0.0
  9
$LIMMAX
 10
420.0
 20
297.0
  9
$ORTHOMODE
 70
     0
  9
$REGENMODE
 70
     1
  9
$FILLMODE
 70
     1
  9
$QTEXTMODE
 70
     0
  9
$MIRRTEXT
 70
     1
  9
$DRAGMODE
 70
     2
  9
$LTSCALE
 40
1.0
  9
$OSMODE
 70
    37
  9
$ATTMODE
 70
     1
  9
$TEXTSIZE
 40
6.35
  9
$TRACEWID
 40
1.0
  9
$TEXTSTYLE
  7
STANDARD
  9
$CLAYER
  8
0
  9
$CELTYPE
  6
BYLAYER
  9
$CECOLOR
 62
   256
  9
$DIMSCALE
 40
1.0
  9
$DIMASZ
 40
5.9944
  9
$DIMEXO
 40
0.9906
  9
$DIMDLI
 40
3.75
  9
$DIMRND
 40
0.0
  9
$DIMDLE
 40
0.0
  9
$DIMEXE
 40
0.9906
  9
$DIMTP
 40
0.0
  9
$DIMTM
 40
0.0
  9
$DIMTXT
 40
6.35
  9
$DIMCEN
 40
2.5
  9
$DIMTSZ
 40
0.0
  9
$DIMTOL
 70
     0
  9
$DIMLIM
 70
     0
  9
$DIMTIH
 70
     1
  9
$DIMTOH
 70
     1
  9
$DIMSE1
 70
     0
  9
$DIMSE2
 70
     0
  9
$DIMTAD
 70
     1
  9
$DIMZIN
 70
     0
  9
$DIMBLK
  1

  9
$DIMASO
 70
     1
  9
$DIMSHO
 70
     1
  9
$DIMPOST
  1

  9
$DIMAPOST
  1

  9
$DIMALT
 70
     0
  9
$DIMALTD
 70
     3
  9
$DIMALTF
 40
0.0393700787
  9
$DIMLFAC
 40
1.0
  9
$DIMTOFL
 70
     1
  9
$DIMTVP
 40
0.0
  9
$DIMTIX
 70
     0
  9
$DIMSOXD
 70
     0
  9
$DIMSAH
 70
     0
  9
$DIMBLK1
  1

  9
$DIMBLK2
  1

  9
$DIMSTYLE
  2
ISO-25
  9
$DIMCLRD
 70
     0
  9
$DIMCLRE
 70
     0
  9
$DIMCLRT
 70
     0
  9
$DIMTFAC
 40
1.0
  9
$DIMGAP
 40
1.524
  9
$LUNITS
 70
     2
  9
$LUPREC
 70
     2
  9
$SKETCHINC
 40
1.0
  9
$FILLETRAD
 40
10.0
  9
$AUNITS
 70
     0
  9
$AUPREC
 70
     2
  9
$MENU
  1
.
  9
$ELEVATION
 40
0.0
  9
$PELEVATION
 40
0.0
  9
$THICKNESS
 40
0.0
  9
$LIMCHECK
 70
     0
  9
$CHAMFERA
 40
0.0
  9
$CHAMFERB
 40
0.0
  9
$SKPOLY
 70
     0
  9
$TDCREATE
 40
2456743.421552801
  9
$TDUPDATE
 40
2456743.421577269
  9
$TDINDWG
 40
0.0000000116
  9
$TDUSRTIMER
 40
0.0000000116
  9
$USRTIMER
 70
     1
  9
$ANGBASE
 50
0.0
  9
$ANGDIR
 70
     0
  9
$PDMODE
 70
     0
  9
$PDSIZE
 40
-1.0
  9
$PLINEWID
 40
0.0
  9
$COORDS
 70
     1
  9
$SPLFRAME
 70
     0
  9
$SPLINETYPE
 70
     6
  9
$SPLINESEGS
 70
     8
  9
$ATTDIA
 70
     0
  9
$ATTREQ
 70
     1
  9
$HANDLING
 70
     1
  9
$HANDSEED
  5
19E
  9
$SURFTAB1
 70
     6
  9
$SURFTAB2
 70
     6
  9
$SURFTYPE
 70
     6
  9
$SURFU
 70
     6
  9
$SURFV
 70
     6
  9
$UCSNAME
  2

  9
$UCSORG
 10
0.0
 20
0.0
 30
0.0
  9
$UCSXDIR
 10
1.0
 20
0.0
 30
0.0
  9
$UCSYDIR
 10
0.0
 20
1.0
 30
0.0
  9
$PUCSNAME
  2

  9
$PUCSORG
 10
0.0
 20
0.0
 30
0.0
  9
$PUCSXDIR
 10
1.0
 20
0.0
 30
0.0
  9
$PUCSYDIR
 10
0.0
 20
1.0
 30
0.0
  9
$USERI1
 70
     0
  9
$USERI2
 70
     0
  9
$USERI3
 70
     0
  9
$USERI4
 70
     0
  9
$USERI5
 70
     0
  9
$USERR1
 40
0.0
  9
$USERR2
 40
0.0
  9
$USERR3
 40
0.0
  9
$USERR4
 40
0.0
  9
$USERR5
 40
0.0
  9
$WORLDVIEW
 70
     1
  9
$SHADEDGE
 70
     3
  9
$SHADEDIF
 70
    70
  9
$TILEMODE
 70
     1
  9
$MAXACTVP
 70
    64
  9
$PLIMCHECK
 70
     0
  9
$PEXTMIN
 10
1.0000000000E+20
 20
1.0000000000E+20
 30
1.0000000000E+20
  9
$PEXTMAX
 10
-1.0000000000E+20
 20
-1.0000000000E+20
 30
-1.0000000000E+20
  9
$PLIMMIN
 10
0.0
 20
0.0
  9
$PLIMMAX
 10
420.0
 20
297.0
  9
$UNITMODE
 70
     0
  9
$VISRETAIN
 70
     1
  9
$PLINEGEN
 70
     0
  9
$PSLTSCALE
 70
     1
  0
ENDSEC
  0
SECTION
  2
TABLES
  0
TABLE
  2
VPORT
 70
     1
  0
VPORT
  2
*ACTIVE
 70
     0
 10
0.0
 20
0.0
 11
1.0
 21
1.0
 12
-18.4940744866
 22
0.0
 13
0.0
 23
0.0
 14
10.0
 24
10.0
 15
10.0
 25
10.0
 16
0.0
 26
0.0
 36
1.0
 17
0.0
 27
0.0
 37
0.0
 40
257.4629490084
 41
0.8835138762
 42
50.0
 43
0.0
 44
0.0
 50
0.0
 51
0.0
 71
     0
 72
   100
 73
     1
 74
     3
 75
     0
 76
     0
 77
     0
 78
     0
  0
ENDTAB
  0
TABLE
  2
LTYPE
 70
     6
  0
LTYPE
  2
CONTINUOUS
 70
     0
  3
Solid line
 72
    65
 73
     0
 40
0.0
  0
LTYPE
  2
HIDDEN
 70
     0
  3
Hidden __ __ __ __ __ __ __ __ __ __ __ __ __ __
 72
    65
 73
     2
 40
1.905
 49
1.27
 49
-0.635
  0
LTYPE
  2
PHANTOM
 70
     0
  3
Phantom ______  __  __  ______  __  __  ______
 72
    65
 73
     6
 40
12.7
 49
6.35
 49
-1.27
 49
1.27
 49
-1.27
 49
1.27
 49
-1.27
  0
LTYPE
  2
CENTER
 70
     0
  3
Center ____ _ ____ _ ____ _ ____ _ ____ _ ____
 72
    65
 73
     4
 40
10.16
 49
6.35
 49
-1.27
 49
1.27
 49
-1.27
  0
LTYPE
  2
CENTERX2
 70
     0
  3
Center (2x) ________  __  ________  __  _____
 72
    65
 73
     4
 40
20.32
 49
12.7
 49
-2.54
 49
2.54
 49
-2.54
  0
LTYPE
  2
DOT2
 70
     0
  3
Dot (.5x) ........................................
 72
    65
 73
     2
 40
0.635
 49
0.0
 49
-0.635
  0
ENDTAB
  0
TABLE
  2
LAYER
 70
     1
  0
LAYER
  2
0
 70
     0
 62
     7
  6
CONTINUOUS
  0
ENDTAB
  0
TABLE
  2
STYLE
 70
     1
  0
STYLE
  2
STANDARD
 70
     0
 40
0.0
 41
1.0
 50
0.0
 71
     0
 42
6.35
  3
txt
  4

  0
ENDTAB
  0
TABLE
  2
VIEW
 70
     0
  0
ENDTAB
  0
TABLE
  2
UCS
 70
     0
  0
ENDTAB
  0
TABLE
  2
APPID
 70
     1
  0
APPID
  2
ACAD
 70
     0
  0
ENDTAB
  0
TABLE
  2
DIMSTYLE
 70
     1
  0
DIMSTYLE
  2
ISO-25
 70
     0
  3

  4

  5

  6

  7

 40
1.0
 41
2.5
 42
0.625
 43
3.75
 44
1.25
 45
0.0
 46
0.0
 47
0.0
 48
0.0
140
2.5
141
2.5
142
0.0
143
0.0393700787
144
1.0
145
0.0
146
1.0
147
0.625
 71
     0
 72
     0
 73
     0
 74
     0
 75
     0
 76
     0
 77
     1
 78
     8
170
     0
171
     3
172
     1
173
     0
174
     0
175
     0
176
     0
177
     0
178
     0
  0
ENDTAB
  0
ENDSEC
  0
SECTION
  2
BLOCKS
  0
BLOCK
  8
0
  2
$MODEL_SPACE
 70
     0
 10
0.0
 20
0.0
 30
0.0
  3
$MODEL_SPACE
  1

  0
ENDBLK
  5
21
  8
0
  0
BLOCK
 67
     1
  8
0
  2
$PAPER_SPACE
 70
     0
 10
0.0
 20
0.0
 30
0.0
  3
$PAPER_SPACE
  1

  0
ENDBLK
  5
1D
 67
     1
  8
0
  0
ENDSEC
  0
SECTION
  2
ENTITIES
  0
CIRCLE
  5
6F
  8
0
  6
CONTINUOUS
 62
     7
 10
-5.7800132796
 20
-55.9889615817
 30
0.0
 40
1.5
  0
CIRCLE
  5
70
  8
0
  6
CONTINUOUS
 62
     7
 10
-16.7082165099
 20
-58.917164812
 30
0.0
 40
1.5
  0
CIRCLE
  5
71
  8
0
  6
CONTINUOUS
 62
     7
 10
-13.7800132796
 20
-69.8453680423
 30
0.0
 40
1.5
  0
CIRCLE
  5
72
  8
0
  6
CONTINUOUS
 62
     7
 10
-2.8518100493
 20
-66.917164812
 30
0.0
 40
1.5
  0
CIRCLE
  5
73
  8
0
  6
CONTINUOUS
 62
     7
 10
-9.7800132796
 20
-62.917164812
 30
0.0
 40
4.0
  0
CIRCLE
  5
74
  8
0
  6
CONTINUOUS
 62
     7
 10
-50.1847293627
 20
-68.0343626041
 30
0.0
 40
1.600000000000009
  0
CIRCLE
  5
75
  8
0
  6
CONTINUOUS
 62
     7
 10
-45.1847293627
 20
-59.3741085663
 30
0.0
 40
1.599999999999994
  0
CIRCLE
  5
76
  8
0
  6
CONTINUOUS
 62
     7
 10
89.0118510268
 20
-87.1730484541
 30
0.0
 40
1.60000000000001
  0
CIRCLE
  5
77
  8
0
  6
CONTINUOUS
 62
     7
 10
30.9881489732
 20
-120.6730484541
 30
0.0
 40
1.600000000000007
  0
CIRCLE
  5
78
  8
0
  6
CONTINUOUS
 62
     7
 10
30.9881489732
 20
120.6730484541
 30
0.0
 40
1.600000000000005
  0
CIRCLE
  5
79
  8
0
  6
CONTINUOUS
 62
     7
 10
89.0118510268
 20
87.1730484541
 30
0.0
 40
1.600000000000012
  0
CIRCLE
  5
7A
  8
0
  6
CONTINUOUS
 62
     7
 10
-120.0
 20
-33.5
 30
0.0
 40
1.600000000000009
  0
CIRCLE
  5
7B
  8
0
  6
CONTINUOUS
 62
     7
 10
-120.0
 20
33.5
 30
0.0
 40
1.600000000000001
  0
LINE
  5
7C
  8
0
  6
CONTINUOUS
 62
     7
 10
17.251288694
 20
85.8801085141
 30
0.0
 11
18.251288694
 21
87.6121593217
 31
0.0
  0
ARC
  5
7D
  8
0
  6
CONTINUOUS
 62
     7
 10
15.9522505884
 20
86.6301085141
 30
0.0
 40
1.500000000000005
 50
150.0
 51
330.0
  0
LINE
  5
7E
  8
0
  6
CONTINUOUS
 62
     7
 10
14.6532124827
 20
87.3801085141
 30
0.0
 11
15.6532124827
 21
89.1121593217
 31
0.0
  0
ARC
  5
7F
  8
0
  6
CONTINUOUS
 62
     7
 10
16.9522505884
 20
88.3621593217
 30
0.0
 40
1.500000000000005
 50
330.0
 51
150.0
  0
LINE
  5
80
  8
0
  6
CONTINUOUS
 62
     7
 10
10.0371870789
 20
81.3849179857
 30
0.0
 11
5.0371870789
 21
72.7246639479
 31
0.0
  0
ARC
  5
81
  8
0
  6
CONTINUOUS
 62
     7
 10
12.2022505884
 20
80.1349179857
 30
0.0
 40
2.500000000000013
 50
330.0
 51
150.0
  0
LINE
  5
82
  8
0
  6
CONTINUOUS
 62
     7
 10
14.3673140978
 20
78.8849179857
 30
0.0
 11
9.3673140978
 21
70.2246639479
 31
0.0
  0
ARC
  5
83
  8
0
  6
CONTINUOUS
 62
     7
 10
7.2022505884
 20
71.4746639479
 30
0.0
 40
2.500000000000002
 50
150.0
 51
330.0
  0
ARC
  5
84
  8
0
  6
CONTINUOUS
 62
     7
 10
68.0477494116
 20
58.8621593217
 30
0.0
 40
1.500000000000014
 50
330.0
 51
150.0
  0
LINE
  5
85
  8
0
  6
CONTINUOUS
 62
     7
 10
68.3467875173
 20
56.3801085141
 30
0.0
 11
69.3467875173
 21
58.1121593217
 31
0.0
  0
ARC
  5
86
  8
0
  6
CONTINUOUS
 62
     7
 10
67.0477494116
 20
57.1301085141
 30
0.0
 40
1.500000000000018
 50
150.0
 51
330.0
  0
LINE
  5
87
  8
0
  6
CONTINUOUS
 62
     7
 10
65.748711306
 20
57.8801085141
 30
0.0
 11
66.748711306
 21
59.6121593217
 31
0.0
  0
LINE
  5
88
  8
0
  6
CONTINUOUS
 62
     7
 10
80.4628129211
 20
-75.3656800993
 30
0.0
 11
73.9628129211
 21
-64.1073498501
 31
0.0
  0
ARC
  5
89
  8
0
  6
CONTINUOUS
 62
     7
 10
78.2977494116
 20
-76.6156800993
 30
0.0
 40
2.500000000000005
 50
210.0
 51
30.0
  0
LINE
  5
8A
  8
0
  6
CONTINUOUS
 62
     7
 10
76.1326859022
 20
-77.8656800993
 30
0.0
 11
69.6326859022
 21
-66.6073498501
 31
0.0
  0
ARC
  5
8B
  8
0
  6
CONTINUOUS
 62
     7
 10
71.7977494116
 20
-65.3573498501
 30
0.0
 40
2.500000000000017
 50
30.0
 51
210.0
  0
ARC
  5
8C
  8
0
  6
CONTINUOUS
 62
     7
 10
20.7022505884
 20
-94.8573498501
 30
0.0
 40
2.500000000000004
 50
30.0
 51
210.0
  0
LINE
  5
8D
  8
0
  6
CONTINUOUS
 62
     7
 10
29.3673140978
 20
-104.8656800993
 30
0.0
 11
22.8673140978
 21
-93.6073498501
 31
0.0
  0
ARC
  5
8E
  8
0
  6
CONTINUOUS
 62
     7
 10
27.2022505884
 20
-106.1156800993
 30
0.0
 40
2.500000000000009
 50
210.0
 51
30.0
  0
LINE
  5
8F
  8
0
  6
CONTINUOUS
 62
     7
 10
25.0371870789
 20
-107.3656800993
 30
0.0
 11
18.5371870789
 21
-96.1073498501
 31
0.0
  0
ARC
  5
90
  8
0
  6
CONTINUOUS
 62
     7
 10
12.2022505884
 20
-80.1349179857
 30
0.0
 40
2.500000000000003
 50
210.0
 51
30.0
  0
LINE
  5
91
  8
0
  6
CONTINUOUS
 62
     7
 10
10.0371870789
 20
-81.3849179857
 30
0.0
 11
5.0371870789
 21
-72.7246639479
 31
0.0
  0
ARC
  5
92
  8
0
  6
CONTINUOUS
 62
     7
 10
7.2022505884
 20
-71.4746639479
 30
0.0
 40
2.500000000000007
 50
30.0
 51
210.0
  0
LINE
  5
93
  8
0
  6
CONTINUOUS
 62
     7
 10
14.3673140978
 20
-78.8849179857
 30
0.0
 11
9.3673140978
 21
-70.2246639479
 31
0.0
  0
LINE
  5
94
  8
0
  6
CONTINUOUS
 62
     7
 10
-83.0
 20
-28.0
 30
0.0
 11
-85.0
 21
-28.0
 31
0.0
  0
ARC
  5
95
  8
0
  6
CONTINUOUS
 62
     7
 10
-83.0
 20
-29.5
 30
0.0
 40
1.500000000000004
 50
270.0
 51
90.0
  0
LINE
  5
96
  8
0
  6
CONTINUOUS
 62
     7
 10
-83.0
 20
-31.0
 30
0.0
 11
-85.0
 21
-31.0
 31
0.0
  0
ARC
  5
97
  8
0
  6
CONTINUOUS
 62
     7
 10
-85.0
 20
-29.5
 30
0.0
 40
1.500000000000004
 50
90.0
 51
270.0
  0
LINE
  5
98
  8
0
  6
CONTINUOUS
 62
     7
 10
-75.5
 20
-32.0
 30
0.0
 11
-65.5
 21
-32.0
 31
0.0
  0
ARC
  5
99
  8
0
  6
CONTINUOUS
 62
     7
 10
-75.5
 20
-29.5
 30
0.0
 40
2.5
 50
90.0
 51
270.0
  0
LINE
  5
9A
  8
0
  6
CONTINUOUS
 62
     7
 10
-75.5
 20
-27.0
 30
0.0
 11
-65.5
 21
-27.0
 31
0.0
  0
ARC
  5
9B
  8
0
  6
CONTINUOUS
 62
     7
 10
-65.5
 20
-29.5
 30
0.0
 40
2.5
 50
270.0
 51
90.0
  0
ARC
  5
9C
  8
0
  6
CONTINUOUS
 62
     7
 10
-85.0
 20
29.5
 30
0.0
 40
1.500000000000004
 50
90.0
 51
270.0
  0
LINE
  5
9D
  8
0
  6
CONTINUOUS
 62
     7
 10
-83.0
 20
31.0
 30
0.0
 11
-85.0
 21
31.0
 31
0.0
  0
ARC
  5
9E
  8
0
  6
CONTINUOUS
 62
     7
 10
-83.0
 20
29.5
 30
0.0
 40
1.500000000000004
 50
270.0
 51
90.0
  0
LINE
  5
9F
  8
0
  6
CONTINUOUS
 62
     7
 10
-83.0
 20
28.0
 30
0.0
 11
-85.0
 21
28.0
 31
0.0
  0
CIRCLE
  5
A0
  8
0
  6
CONTINUOUS
 62
     7
 10
40.5144284149
 20
-115.1730484541
 30
0.0
 40
4.0
  0
CIRCLE
  5
A1
  8
0
  6
CONTINUOUS
 62
     7
 10
40.5144284149
 20
115.1730484541
 30
0.0
 40
4.000000000000014
  0
CIRCLE
  5
A2
  8
0
  6
CONTINUOUS
 62
     7
 10
-120.0
 20
22.5
 30
0.0
 40
4.000000000000004
  0
LINE
  5
A3
  8
0
  6
CONTINUOUS
 62
     7
 10
49.1746824527
 20
-110.1730484541
 30
0.0
 11
42.6746824527
 21
-98.9147182049
 31
0.0
  0
ARC
  5
A4
  8
0
  6
CONTINUOUS
 62
     7
 10
39.2105808376
 20
-100.9147182049
 30
0.0
 40
4.00000000000002
 50
30.0
 51
120.0
  0
LINE
  5
A5
  8
0
  6
CONTINUOUS
 62
     7
 10
36.3445554338
 20
-97.9506165898
 30
0.0
 11
37.2105808376
 21
-97.4506165898
 31
0.0
  0
ARC
  5
A6
  8
0
  6
CONTINUOUS
 62
     7
 10
34.3445554338
 20
-94.4865149747
 30
0.0
 40
4.000000000000012
 50
120.0
 51
300.0
  0
LINE
  5
A7
  8
0
  6
CONTINUOUS
 62
     7
 10
32.3445554338
 20
-91.0224133595
 30
0.0
 11
54.8612159322
 21
-78.0224133595
 31
0.0
  0
ARC
  5
A8
  8
0
  6
CONTINUOUS
 62
     7
 10
56.8612159322
 20
-81.4865149747
 30
0.0
 40
3.999999999999995
 50
30.0
 51
120.0
  0
LINE
  5
A9
  8
0
  6
CONTINUOUS
 62
     7
 10
60.3253175473
 20
-79.4865149747
 30
0.0
 11
70.8253175473
 21
-97.6730484541
 31
0.0
  0
ARC
  5
AA
  8
0
  6
CONTINUOUS
 62
     7
 10
79.4855715852
 20
-92.6730484541
 30
0.0
 40
10.00000000000007
 50
210.0
 51
300.0
  0
POLYLINE
  5
AB
  8
0
  6
CONTINUOUS
 62
     7
 66
     1
 10
0.0
 20
0.0
 30
0.0
  0
VERTEX
  5
102
  8
0
  6
CONTINUOUS
 62
     7
 10
84.4855715852
 20
-101.333302492
 30
0.0
  0
VERTEX
  5
103
  8
0
  6
CONTINUOUS
 62
     7
 10
85.0826205781
 20
-100.9729264436
 30
0.0
  0
VERTEX
  5
104
  8
0
  6
CONTINUOUS
 62
     7
 10
85.6668516842
 20
-100.5885475276
 30
0.0
  0
VERTEX
  5
105
  8
0
  6
CONTINUOUS
 62
     7
 10
86.2371457534
 20
-100.1807159232
 30
0.0
  0
VERTEX
  5
106
  8
0
  6
CONTINUOUS
 62
     7
 10
86.7923836356
 20
-99.7499818094
 30
0.0
  0
VERTEX
  5
107
  8
0
  6
CONTINUOUS
 62
     7
 10
87.331446181
 20
-99.2968953655
 30
0.0
  0
VERTEX
  5
108
  8
0
  6
CONTINUOUS
 62
     7
 10
87.8532142395
 20
-98.8220067705
 30
0.0
  0
VERTEX
  5
109
  8
0
  6
CONTINUOUS
 62
     7
 10
88.3565686611
 20
-98.3258662036
 30
0.0
  0
VERTEX
  5
10A
  8
0
  6
CONTINUOUS
 62
     7
 10
88.8403902957
 20
-97.8090238439
 30
0.0
  0
VERTEX
  5
10B
  8
0
  6
CONTINUOUS
 62
     7
 10
89.3035599935
 20
-97.2720298706
 30
0.0
  0
VERTEX
  5
10C
  8
0
  6
CONTINUOUS
 62
     7
 10
89.7449586043
 20
-96.7154344629
 30
0.0
  0
VERTEX
  5
10D
  8
0
  6
CONTINUOUS
 62
     7
 10
90.1634669782
 20
-96.1397877998
 30
0.0
  0
VERTEX
  5
10E
  8
0
  6
CONTINUOUS
 62
     7
 10
90.5579659652
 20
-95.5456400605
 30
0.0
  0
VERTEX
  5
10F
  8
0
  6
CONTINUOUS
 62
     7
 10
90.9273364152
 20
-94.9335414242
 30
0.0
  0
VERTEX
  5
110
  8
0
  6
CONTINUOUS
 62
     7
 10
91.2704591783
 20
-94.30404207
 30
0.0
  0
VERTEX
  5
111
  8
0
  6
CONTINUOUS
 62
     7
 10
91.5862151044
 20
-93.657692177
 30
0.0
  0
VERTEX
  5
112
  8
0
  6
CONTINUOUS
 62
     7
 10
91.8734850437
 20
-92.9950419244
 30
0.0
  0
VERTEX
  5
113
  8
0
  6
CONTINUOUS
 62
     7
 10
92.1311498459
 20
-92.3166414913
 30
0.0
  0
VERTEX
  5
114
  8
0
  6
CONTINUOUS
 62
     7
 10
92.3580903612
 20
-91.6230410568
 30
0.0
  0
VERTEX
  5
115
  8
0
  6
CONTINUOUS
 62
     7
 10
92.5531874396
 20
-90.9147908002
 30
0.0
  0
VERTEX
  5
116
  8
0
  6
CONTINUOUS
 62
     7
 10
92.715321931
 20
-90.1924409005
 30
0.0
  0
VERTEX
  5
117
  8
0
  6
CONTINUOUS
 62
     7
 10
92.8433746854
 20
-89.4565415369
 30
0.0
  0
VERTEX
  5
118
  8
0
  6
CONTINUOUS
 62
     7
 10
92.9362265528
 20
-88.7076428886
 30
0.0
  0
VERTEX
  5
119
  8
0
  6
CONTINUOUS
 62
     7
 10
92.9927583833
 20
-87.9462951346
 30
0.0
  0
VERTEX
  5
11A
  8
0
  6
CONTINUOUS
 62
     7
 10
93.0118510268
 20
-87.1730484541
 30
0.0
  0
SEQEND
  5
198
  8
0
  6
CONTINUOUS
 62
     7
  0
LINE
  5
AC
  8
0
  6
CONTINUOUS
 62
     7
 10
93.0118510268
 20
-87.1730484541
 30
0.0
 11
93.0118510268
 21
87.1730484541
 31
0.0
  0
POLYLINE
  5
AD
  8
0
  6
CONTINUOUS
 62
     7
 66
     1
 10
0.0
 20
0.0
 30
0.0
  0
VERTEX
  5
11B
  8
0
  6
CONTINUOUS
 62
     7
 10
93.0118510268
 20
87.1730484541
 30
0.0
  0
VERTEX
  5
11C
  8
0
  6
CONTINUOUS
 62
     7
 10
92.9927583833
 20
87.9462951346
 30
0.0
  0
VERTEX
  5
11D
  8
0
  6
CONTINUOUS
 62
     7
 10
92.9362265528
 20
88.7076428886
 30
0.0
  0
VERTEX
  5
11E
  8
0
  6
CONTINUOUS
 62
     7
 10
92.8433746854
 20
89.4565415369
 30
0.0
  0
VERTEX
  5
11F
  8
0
  6
CONTINUOUS
 62
     7
 10
92.715321931
 20
90.1924409005
 30
0.0
  0
VERTEX
  5
120
  8
0
  6
CONTINUOUS
 62
     7
 10
92.5531874396
 20
90.9147908002
 30
0.0
  0
VERTEX
  5
121
  8
0
  6
CONTINUOUS
 62
     7
 10
92.3580903612
 20
91.6230410568
 30
0.0
  0
VERTEX
  5
122
  8
0
  6
CONTINUOUS
 62
     7
 10
92.1311498459
 20
92.3166414913
 30
0.0
  0
VERTEX
  5
123
  8
0
  6
CONTINUOUS
 62
     7
 10
91.8734850437
 20
92.9950419244
 30
0.0
  0
VERTEX
  5
124
  8
0
  6
CONTINUOUS
 62
     7
 10
91.5862151044
 20
93.657692177
 30
0.0
  0
VERTEX
  5
125
  8
0
  6
CONTINUOUS
 62
     7
 10
91.2704591783
 20
94.30404207
 30
0.0
  0
VERTEX
  5
126
  8
0
  6
CONTINUOUS
 62
     7
 10
90.9273364152
 20
94.9335414242
 30
0.0
  0
VERTEX
  5
127
  8
0
  6
CONTINUOUS
 62
     7
 10
90.5579659652
 20
95.5456400605
 30
0.0
  0
VERTEX
  5
128
  8
0
  6
CONTINUOUS
 62
     7
 10
90.1634669782
 20
96.1397877998
 30
0.0
  0
VERTEX
  5
129
  8
0
  6
CONTINUOUS
 62
     7
 10
89.7449586043
 20
96.7154344629
 30
0.0
  0
VERTEX
  5
12A
  8
0
  6
CONTINUOUS
 62
     7
 10
89.3035599935
 20
97.2720298706
 30
0.0
  0
VERTEX
  5
12B
  8
0
  6
CONTINUOUS
 62
     7
 10
88.8403902957
 20
97.8090238439
 30
0.0
  0
VERTEX
  5
12C
  8
0
  6
CONTINUOUS
 62
     7
 10
88.3565686611
 20
98.3258662036
 30
0.0
  0
VERTEX
  5
12D
  8
0
  6
CONTINUOUS
 62
     7
 10
87.8532142395
 20
98.8220067705
 30
0.0
  0
VERTEX
  5
12E
  8
0
  6
CONTINUOUS
 62
     7
 10
87.331446181
 20
99.2968953655
 30
0.0
  0
VERTEX
  5
12F
  8
0
  6
CONTINUOUS
 62
     7
 10
86.7923836356
 20
99.7499818094
 30
0.0
  0
VERTEX
  5
130
  8
0
  6
CONTINUOUS
 62
     7
 10
86.2371457534
 20
100.1807159232
 30
0.0
  0
VERTEX
  5
131
  8
0
  6
CONTINUOUS
 62
     7
 10
85.6668516842
 20
100.5885475276
 30
0.0
  0
VERTEX
  5
132
  8
0
  6
CONTINUOUS
 62
     7
 10
85.0826205781
 20
100.9729264436
 30
0.0
  0
VERTEX
  5
133
  8
0
  6
CONTINUOUS
 62
     7
 10
84.4855715851
 20
101.333302492
 30
0.0
  0
SEQEND
  5
199
  8
0
  6
CONTINUOUS
 62
     7
  0
ARC
  5
AE
  8
0
  6
CONTINUOUS
 62
     7
 10
79.4855715851
 20
92.6730484541
 30
0.0
 40
9.999999999999996
 50
60.0
 51
150.0
  0
LINE
  5
AF
  8
0
  6
CONTINUOUS
 62
     7
 10
70.8253175473
 20
97.6730484541
 30
0.0
 11
64.3253175473
 21
86.4147182049
 31
0.0
  0
ARC
  5
B0
  8
0
  6
CONTINUOUS
 62
     7
 10
67.7894191624
 20
84.4147182049
 30
0.0
 40
4.000000000000008
 50
150.0
 51
240.0
  0
LINE
  5
B1
  8
0
  6
CONTINUOUS
 62
     7
 10
66.6554445662
 20
80.4506165898
 30
0.0
 11
65.7894191624
 21
80.9506165898
 31
0.0
  0
ARC
  5
B2
  8
0
  6
CONTINUOUS
 62
     7
 10
64.6554445662
 20
76.9865149747
 30
0.0
 40
4.000000000000008
 50
240.0
 51
60.0
  0
LINE
  5
B3
  8
0
  6
CONTINUOUS
 62
     7
 10
62.6554445662
 20
73.5224133595
 30
0.0
 11
40.1387840678
 21
86.5224133595
 31
0.0
  0
ARC
  5
B4
  8
0
  6
CONTINUOUS
 62
     7
 10
42.1387840678
 20
89.9865149747
 30
0.0
 40
4.000000000000002
 50
150.0
 51
240.0
  0
LINE
  5
B5
  8
0
  6
CONTINUOUS
 62
     7
 10
38.6746824527
 20
91.9865149747
 30
0.0
 11
49.1746824527
 21
110.1730484541
 31
0.0
  0
ARC
  5
B6
  8
0
  6
CONTINUOUS
 62
     7
 10
40.5144284149
 20
115.1730484541
 30
0.0
 40
10.00000000000005
 50
330.0
 51
60.0
  0
POLYLINE
  5
B7
  8
0
  6
CONTINUOUS
 62
     7
 66
     1
 10
0.0
 20
0.0
 30
0.0
  0
VERTEX
  5
134
  8
0
  6
CONTINUOUS
 62
     7
 10
45.5144284149
 20
123.833302492
 30
0.0
  0
VERTEX
  5
135
  8
0
  6
CONTINUOUS
 62
     7
 10
44.9038091056
 20
124.170174063
 30
0.0
  0
VERTEX
  5
136
  8
0
  6
CONTINUOUS
 62
     7
 10
44.2788116466
 20
124.4839435846
 30
0.0
  0
VERTEX
  5
137
  8
0
  6
CONTINUOUS
 62
     7
 10
43.6404720821
 20
124.7739169339
 30
0.0
  0
VERTEX
  5
138
  8
0
  6
CONTINUOUS
 62
     7
 10
42.9898264562
 20
125.0393999882
 30
0.0
  0
VERTEX
  5
139
  8
0
  6
CONTINUOUS
 62
     7
 10
42.3279108129
 20
125.2796986247
 30
0.0
  0
VERTEX
  5
13A
  8
0
  6
CONTINUOUS
 62
     7
 10
41.6557611964
 20
125.4941187208
 30
0.0
  0
VERTEX
  5
13B
  8
0
  6
CONTINUOUS
 62
     7
 10
40.9744136509
 20
125.6819661535
 30
0.0
  0
VERTEX
  5
13C
  8
0
  6
CONTINUOUS
 62
     7
 10
40.2849042203
 20
125.8425468002
 30
0.0
  0
VERTEX
  5
13D
  8
0
  6
CONTINUOUS
 62
     7
 10
39.5882689489
 20
125.9751665381
 30
0.0
  0
VERTEX
  5
13E
  8
0
  6
CONTINUOUS
 62
     7
 10
38.8855438808
 20
126.0791312443
 30
0.0
  0
VERTEX
  5
13F
  8
0
  6
CONTINUOUS
 62
     7
 10
38.17776506
 20
126.1537467963
 30
0.0
  0
VERTEX
  5
140
  8
0
  6
CONTINUOUS
 62
     7
 10
37.4659685307
 20
126.1983190711
 30
0.0
  0
VERTEX
  5
141
  8
0
  6
CONTINUOUS
 62
     7
 10
36.751190337
 20
126.2121539461
 30
0.0
  0
VERTEX
  5
142
  8
0
  6
CONTINUOUS
 62
     7
 10
36.034466523
 20
126.1945572985
 30
0.0
  0
VERTEX
  5
143
  8
0
  6
CONTINUOUS
 62
     7
 10
35.3168331329
 20
126.1448350054
 30
0.0
  0
VERTEX
  5
144
  8
0
  6
CONTINUOUS
 62
     7
 10
34.5993262107
 20
126.0622929442
 30
0.0
  0
VERTEX
  5
145
  8
0
  6
CONTINUOUS
 62
     7
 10
33.8829818005
 20
125.9462369921
 30
0.0
  0
VERTEX
  5
146
  8
0
  6
CONTINUOUS
 62
     7
 10
33.1688359466
 20
125.7959730263
 30
0.0
  0
VERTEX
  5
147
  8
0
  6
CONTINUOUS
 62
     7
 10
32.4579246929
 20
125.610806924
 30
0.0
  0
VERTEX
  5
148
  8
0
  6
CONTINUOUS
 62
     7
 10
31.7512840837
 20
125.3900445625
 30
0.0
  0
VERTEX
  5
149
  8
0
  6
CONTINUOUS
 62
     7
 10
31.049950163
 20
125.1329918191
 30
0.0
  0
VERTEX
  5
14A
  8
0
  6
CONTINUOUS
 62
     7
 10
30.3549589749
 20
124.8389545709
 30
0.0
  0
VERTEX
  5
14B
  8
0
  6
CONTINUOUS
 62
     7
 10
29.6673465636
 20
124.5072386952
 30
0.0
  0
VERTEX
  5
14C
  8
0
  6
CONTINUOUS
 62
     7
 10
28.9881489732
 20
124.1371500693
 30
0.0
  0
SEQEND
  5
19A
  8
0
  6
CONTINUOUS
 62
     7
  0
LINE
  5
B8
  8
0
  6
CONTINUOUS
 62
     7
 10
28.9881489732
 20
124.1371500693
 30
0.0
 11
-122.0
 21
36.9641016151
 31
0.0
  0
POLYLINE
  5
B9
  8
0
  6
CONTINUOUS
 62
     7
 66
     1
 10
0.0
 20
0.0
 30
0.0
  0
VERTEX
  5
14D
  8
0
  6
CONTINUOUS
 62
     7
 10
-122.0
 20
36.9641016151
 30
0.0
  0
VERTEX
  5
14E
  8
0
  6
CONTINUOUS
 62
     7
 10
-122.6601049469
 20
36.5609435606
 30
0.0
  0
VERTEX
  5
14F
  8
0
  6
CONTINUOUS
 62
     7
 10
-123.2911855278
 20
36.1313116823
 30
0.0
  0
VERTEX
  5
150
  8
0
  6
CONTINUOUS
 62
     7
 10
-123.8933248484
 20
35.6764502821
 30
0.0
  0
VERTEX
  5
151
  8
0
  6
CONTINUOUS
 62
     7
 10
-124.4666060147
 20
35.197603662
 30
0.0
  0
VERTEX
  5
152
  8
0
  6
CONTINUOUS
 62
     7
 10
-125.0111121325
 20
34.6960161238
 30
0.0
  0
VERTEX
  5
153
  8
0
  6
CONTINUOUS
 62
     7
 10
-125.5269263078
 20
34.1729319694
 30
0.0
  0
VERTEX
  5
154
  8
0
  6
CONTINUOUS
 62
     7
 10
-126.0141316465
 20
33.6295955008
 30
0.0
  0
VERTEX
  5
155
  8
0
  6
CONTINUOUS
 62
     7
 10
-126.4728112543
 20
33.0672510198
 30
0.0
  0
VERTEX
  5
156
  8
0
  6
CONTINUOUS
 62
     7
 10
-126.9030482373
 20
32.4871428284
 30
0.0
  0
VERTEX
  5
157
  8
0
  6
CONTINUOUS
 62
     7
 10
-127.3049257013
 20
31.8905152285
 30
0.0
  0
VERTEX
  5
158
  8
0
  6
CONTINUOUS
 62
     7
 10
-127.6785267522
 20
31.2786125219
 30
0.0
  0
VERTEX
  5
159
  8
0
  6
CONTINUOUS
 62
     7
 10
-128.0239344958
 20
30.6526790106
 30
0.0
  0
VERTEX
  5
15A
  8
0
  6
CONTINUOUS
 62
     7
 10
-128.3412320382
 20
30.0139589965
 30
0.0
  0
VERTEX
  5
15B
  8
0
  6
CONTINUOUS
 62
     7
 10
-128.6305024851
 20
29.3636967815
 30
0.0
  0
VERTEX
  5
15C
  8
0
  6
CONTINUOUS
 62
     7
 10
-128.8918289424
 20
28.7031366674
 30
0.0
  0
VERTEX
  5
15D
  8
0
  6
CONTINUOUS
 62
     7
 10
-129.1252945161
 20
28.0335229563
 30
0.0
  0
VERTEX
  5
15E
  8
0
  6
CONTINUOUS
 62
     7
 10
-129.3309823119
 20
27.3560999499
 30
0.0
  0
VERTEX
  5
15F
  8
0
  6
CONTINUOUS
 62
     7
 10
-129.5089754359
 20
26.6721119503
 30
0.0
  0
VERTEX
  5
160
  8
0
  6
CONTINUOUS
 62
     7
 10
-129.6593569939
 20
25.9828032593
 30
0.0
  0
VERTEX
  5
161
  8
0
  6
CONTINUOUS
 62
     7
 10
-129.7822100918
 20
25.2894181787
 30
0.0
  0
VERTEX
  5
162
  8
0
  6
CONTINUOUS
 62
     7
 10
-129.8776178355
 20
24.5932010107
 30
0.0
  0
VERTEX
  5
163
  8
0
  6
CONTINUOUS
 62
     7
 10
-129.9456633308
 20
23.8953960569
 30
0.0
  0
VERTEX
  5
164
  8
0
  6
CONTINUOUS
 62
     7
 10
-129.9864296837
 20
23.1972476194
 30
0.0
  0
VERTEX
  5
165
  8
0
  6
CONTINUOUS
 62
     7
 10
-130.0
 20
22.5
 30
0.0
  0
SEQEND
  5
19B
  8
0
  6
CONTINUOUS
 62
     7
  0
ARC
  5
BA
  8
0
  6
CONTINUOUS
 62
     7
 10
-120.0
 20
22.5
 30
0.0
 40
10.0
 50
180.0
 51
270.0
  0
LINE
  5
BB
  8
0
  6
CONTINUOUS
 62
     7
 10
-120.0
 20
12.5
 30
0.0
 11
-107.0
 21
12.5
 31
0.0
  0
ARC
  5
BC
  8
0
  6
CONTINUOUS
 62
     7
 10
-107.0
 20
16.5
 30
0.0
 40
4.000000000000002
 50
270.0
 51
0.0
  0
LINE
  5
BD
  8
0
  6
CONTINUOUS
 62
     7
 10
-103.0
 20
17.5
 30
0.0
 11
-103.0
 21
16.5
 31
0.0
  0
ARC
  5
BE
  8
0
  6
CONTINUOUS
 62
     7
 10
-99.0
 20
17.5
 30
0.0
 40
3.999999999999986
 50
0.0
 51
180.0
  0
LINE
  5
BF
  8
0
  6
CONTINUOUS
 62
     7
 10
-95.0
 20
17.5
 30
0.0
 11
-95.0
 21
-8.5
 31
0.0
  0
ARC
  5
C0
  8
0
  6
CONTINUOUS
 62
     7
 10
-99.0
 20
-8.5
 30
0.0
 40
4.0
 50
270.0
 51
0.0
  0
LINE
  5
C1
  8
0
  6
CONTINUOUS
 62
     7
 10
-99.0
 20
-12.5
 30
0.0
 11
-120.0
 21
-12.5
 31
0.0
  0
ARC
  5
C2
  8
0
  6
CONTINUOUS
 62
     7
 10
-120.0
 20
-22.5
 30
0.0
 40
10.0
 50
90.0
 51
180.0
  0
POLYLINE
  5
C3
  8
0
  6
CONTINUOUS
 62
     7
 66
     1
 10
0.0
 20
0.0
 30
0.0
  0
VERTEX
  5
166
  8
0
  6
CONTINUOUS
 62
     7
 10
-130.0
 20
-22.5
 30
0.0
  0
VERTEX
  5
167
  8
0
  6
CONTINUOUS
 62
     7
 10
-129.9864296837
 20
-23.1972476194
 30
0.0
  0
VERTEX
  5
168
  8
0
  6
CONTINUOUS
 62
     7
 10
-129.9456633308
 20
-23.8953960569
 30
0.0
  0
VERTEX
  5
169
  8
0
  6
CONTINUOUS
 62
     7
 10
-129.8776178355
 20
-24.5932010107
 30
0.0
  0
VERTEX
  5
16A
  8
0
  6
CONTINUOUS
 62
     7
 10
-129.7822100918
 20
-25.2894181787
 30
0.0
  0
VERTEX
  5
16B
  8
0
  6
CONTINUOUS
 62
     7
 10
-129.6593569939
 20
-25.9828032593
 30
0.0
  0
VERTEX
  5
16C
  8
0
  6
CONTINUOUS
 62
     7
 10
-129.5089754359
 20
-26.6721119503
 30
0.0
  0
VERTEX
  5
16D
  8
0
  6
CONTINUOUS
 62
     7
 10
-129.3309823119
 20
-27.3560999499
 30
0.0
  0
VERTEX
  5
16E
  8
0
  6
CONTINUOUS
 62
     7
 10
-129.1252945161
 20
-28.0335229563
 30
0.0
  0
VERTEX
  5
16F
  8
0
  6
CONTINUOUS
 62
     7
 10
-128.8918289424
 20
-28.7031366674
 30
0.0
  0
VERTEX
  5
170
  8
0
  6
CONTINUOUS
 62
     7
 10
-128.6305024851
 20
-29.3636967815
 30
0.0
  0
VERTEX
  5
171
  8
0
  6
CONTINUOUS
 62
     7
 10
-128.3412320382
 20
-30.0139589965
 30
0.0
  0
VERTEX
  5
172
  8
0
  6
CONTINUOUS
 62
     7
 10
-128.0239344958
 20
-30.6526790106
 30
0.0
  0
VERTEX
  5
173
  8
0
  6
CONTINUOUS
 62
     7
 10
-127.6785267522
 20
-31.2786125219
 30
0.0
  0
VERTEX
  5
174
  8
0
  6
CONTINUOUS
 62
     7
 10
-127.3049257013
 20
-31.8905152285
 30
0.0
  0
VERTEX
  5
175
  8
0
  6
CONTINUOUS
 62
     7
 10
-126.9030482373
 20
-32.4871428284
 30
0.0
  0
VERTEX
  5
176
  8
0
  6
CONTINUOUS
 62
     7
 10
-126.4728112543
 20
-33.0672510198
 30
0.0
  0
VERTEX
  5
177
  8
0
  6
CONTINUOUS
 62
     7
 10
-126.0141316465
 20
-33.6295955008
 30
0.0
  0
VERTEX
  5
178
  8
0
  6
CONTINUOUS
 62
     7
 10
-125.5269263078
 20
-34.1729319694
 30
0.0
  0
VERTEX
  5
179
  8
0
  6
CONTINUOUS
 62
     7
 10
-125.0111121325
 20
-34.6960161238
 30
0.0
  0
VERTEX
  5
17A
  8
0
  6
CONTINUOUS
 62
     7
 10
-124.4666060147
 20
-35.197603662
 30
0.0
  0
VERTEX
  5
17B
  8
0
  6
CONTINUOUS
 62
     7
 10
-123.8933248484
 20
-35.6764502821
 30
0.0
  0
VERTEX
  5
17C
  8
0
  6
CONTINUOUS
 62
     7
 10
-123.2911855278
 20
-36.1313116823
 30
0.0
  0
VERTEX
  5
17D
  8
0
  6
CONTINUOUS
 62
     7
 10
-122.6601049469
 20
-36.5609435606
 30
0.0
  0
VERTEX
  5
17E
  8
0
  6
CONTINUOUS
 62
     7
 10
-122.0
 20
-36.9641016151
 30
0.0
  0
SEQEND
  5
19C
  8
0
  6
CONTINUOUS
 62
     7
  0
LINE
  5
C4
  8
0
  6
CONTINUOUS
 62
     7
 10
-122.0
 20
-36.9641016151
 30
0.0
 11
28.9881489732
 21
-124.1371500693
 31
0.0
  0
POLYLINE
  5
C5
  8
0
  6
CONTINUOUS
 62
     7
 66
     1
 10
0.0
 20
0.0
 30
0.0
  0
VERTEX
  5
17F
  8
0
  6
CONTINUOUS
 62
     7
 10
28.9881489732
 20
-124.1371500693
 30
0.0
  0
VERTEX
  5
180
  8
0
  6
CONTINUOUS
 62
     7
 10
29.6673465636
 20
-124.5072386952
 30
0.0
  0
VERTEX
  5
181
  8
0
  6
CONTINUOUS
 62
     7
 10
30.3549589749
 20
-124.8389545709
 30
0.0
  0
VERTEX
  5
182
  8
0
  6
CONTINUOUS
 62
     7
 10
31.049950163
 20
-125.1329918191
 30
0.0
  0
VERTEX
  5
183
  8
0
  6
CONTINUOUS
 62
     7
 10
31.7512840837
 20
-125.3900445625
 30
0.0
  0
VERTEX
  5
184
  8
0
  6
CONTINUOUS
 62
     7
 10
32.4579246929
 20
-125.610806924
 30
0.0
  0
VERTEX
  5
185
  8
0
  6
CONTINUOUS
 62
     7
 10
33.1688359466
 20
-125.7959730263
 30
0.0
  0
VERTEX
  5
186
  8
0
  6
CONTINUOUS
 62
     7
 10
33.8829818005
 20
-125.9462369921
 30
0.0
  0
VERTEX
  5
187
  8
0
  6
CONTINUOUS
 62
     7
 10
34.5993262107
 20
-126.0622929442
 30
0.0
  0
VERTEX
  5
188
  8
0
  6
CONTINUOUS
 62
     7
 10
35.3168331329
 20
-126.1448350054
 30
0.0
  0
VERTEX
  5
189
  8
0
  6
CONTINUOUS
 62
     7
 10
36.034466523
 20
-126.1945572985
 30
0.0
  0
VERTEX
  5
18A
  8
0
  6
CONTINUOUS
 62
     7
 10
36.751190337
 20
-126.2121539461
 30
0.0
  0
VERTEX
  5
18B
  8
0
  6
CONTINUOUS
 62
     7
 10
37.4659685307
 20
-126.1983190711
 30
0.0
  0
VERTEX
  5
18C
  8
0
  6
CONTINUOUS
 62
     7
 10
38.17776506
 20
-126.1537467963
 30
0.0
  0
VERTEX
  5
18D
  8
0
  6
CONTINUOUS
 62
     7
 10
38.8855438808
 20
-126.0791312443
 30
0.0
  0
VERTEX
  5
18E
  8
0
  6
CONTINUOUS
 62
     7
 10
39.5882689489
 20
-125.975166538
 30
0.0
  0
VERTEX
  5
18F
  8
0
  6
CONTINUOUS
 62
     7
 10
40.2849042203
 20
-125.8425468002
 30
0.0
  0
VERTEX
  5
190
  8
0
  6
CONTINUOUS
 62
     7
 10
40.9744136509
 20
-125.6819661535
 30
0.0
  0
VERTEX
  5
191
  8
0
  6
CONTINUOUS
 62
     7
 10
41.6557611964
 20
-125.4941187208
 30
0.0
  0
VERTEX
  5
192
  8
0
  6
CONTINUOUS
 62
     7
 10
42.3279108129
 20
-125.2796986247
 30
0.0
  0
VERTEX
  5
193
  8
0
  6
CONTINUOUS
 62
     7
 10
42.9898264562
 20
-125.0393999882
 30
0.0
  0
VERTEX
  5
194
  8
0
  6
CONTINUOUS
 62
     7
 10
43.6404720821
 20
-124.7739169339
 30
0.0
  0
VERTEX
  5
195
  8
0
  6
CONTINUOUS
 62
     7
 10
44.2788116466
 20
-124.4839435845
 30
0.0
  0
VERTEX
  5
196
  8
0
  6
CONTINUOUS
 62
     7
 10
44.9038091056
 20
-124.170174063
 30
0.0
  0
VERTEX
  5
197
  8
0
  6
CONTINUOUS
 62
     7
 10
45.5144284149
 20
-123.833302492
 30
0.0
  0
SEQEND
  5
19D
  8
0
  6
CONTINUOUS
 62
     7
  0
ARC
  5
C6
  8
0
  6
CONTINUOUS
 62
     7
 10
40.5144284149
 20
-115.1730484541
 30
0.0
 40
9.999999999999938
 50
300.0
 51
30.0
  0
CIRCLE
  5
C7
  8
0
  6
CONTINUOUS
 62
     7
 10
-120.0
 20
-22.5
 30
0.0
 40
4.000000000000007
  0
CIRCLE
  5
C8
  8
0
  6
CONTINUOUS
 62
     7
 10
79.4855715852
 20
92.6730484541
 30
0.0
 40
4.000000000000014
  0
CIRCLE
  5
C9
  8
0
  6
CONTINUOUS
 62
     7
 10
79.4855715852
 20
-92.6730484541
 30
0.0
 40
4.0
  0
LINE
  5
CA
  8
0
  6
CONTINUOUS
 62
     7
 10
-75.5
 20
27.0
 30
0.0
 11
-65.5
 21
27.0
 31
0.0
  0
ARC
  5
CB
  8
0
  6
CONTINUOUS
 62
     7
 10
-75.5
 20
29.5
 30
0.0
 40
2.5
 50
90.0
 51
270.0
  0
LINE
  5
CC
  8
0
  6
CONTINUOUS
 62
     7
 10
-75.5
 20
32.0
 30
0.0
 11
-65.5
 21
32.0
 31
0.0
  0
ARC
  5
CD
  8
0
  6
CONTINUOUS
 62
     7
 10
-65.5
 20
29.5
 30
0.0
 40
2.5
 50
270.0
 51
90.0
  0
LINE
  5
CE
  8
0
  6
CONTINUOUS
 62
     7
 10
-105.5
 20
32.0
 30
0.0
 11
-92.5
 21
32.0
 31
0.0
  0
ARC
  5
CF
  8
0
  6
CONTINUOUS
 62
     7
 10
-92.5
 20
29.5
 30
0.0
 40
2.5
 50
270.0
 51
90.0
  0
LINE
  5
D0
  8
0
  6
CONTINUOUS
 62
     7
 10
-105.5
 20
27.0
 30
0.0
 11
-92.5
 21
27.0
 31
0.0
  0
ARC
  5
D1
  8
0
  6
CONTINUOUS
 62
     7
 10
-105.5
 20
29.5
 30
0.0
 40
2.5
 50
90.0
 51
270.0
  0
LINE
  5
D2
  8
0
  6
CONTINUOUS
 62
     7
 10
-105.5
 20
-32.0
 30
0.0
 11
-92.5
 21
-32.0
 31
0.0
  0
ARC
  5
D3
  8
0
  6
CONTINUOUS
 62
     7
 10
-105.5
 20
-29.5
 30
0.0
 40
2.5
 50
90.0
 51
270.0
  0
LINE
  5
D4
  8
0
  6
CONTINUOUS
 62
     7
 10
-105.5
 20
-27.0
 30
0.0
 11
-92.5
 21
-27.0
 31
0.0
  0
ARC
  5
D5
  8
0
  6
CONTINUOUS
 62
     7
 10
-92.5
 20
-29.5
 30
0.0
 40
2.5
 50
270.0
 51
90.0
  0
LINE
  5
D6
  8
0
  6
CONTINUOUS
 62
     7
 10
17.251288694
 20
-85.8801085141
 30
0.0
 11
18.251288694
 21
-87.6121593217
 31
0.0
  0
ARC
  5
D7
  8
0
  6
CONTINUOUS
 62
     7
 10
16.9522505884
 20
-88.3621593217
 30
0.0
 40
1.500000000000004
 50
210.0
 51
30.0
  0
LINE
  5
D8
  8
0
  6
CONTINUOUS
 62
     7
 10
14.6532124827
 20
-87.3801085141
 30
0.0
 11
15.6532124827
 21
-89.1121593217
 31
0.0
  0
ARC
  5
D9
  8
0
  6
CONTINUOUS
 62
     7
 10
15.9522505884
 20
-86.6301085141
 30
0.0
 40
1.500000000000004
 50
30.0
 51
210.0
  0
LINE
  5
DA
  8
0
  6
CONTINUOUS
 62
     7
 10
65.4628129211
 20
-49.3849179857
 30
0.0
 11
60.4628129211
 21
-40.7246639479
 31
0.0
  0
ARC
  5
DB
  8
0
  6
CONTINUOUS
 62
     7
 10
63.2977494116
 20
-50.6349179857
 30
0.0
 40
2.500000000000001
 50
210.0
 51
30.0
  0
LINE
  5
DC
  8
0
  6
CONTINUOUS
 62
     7
 10
61.1326859022
 20
-51.8849179857
 30
0.0
 11
56.1326859022
 21
-43.2246639479
 31
0.0
  0
ARC
  5
DD
  8
0
  6
CONTINUOUS
 62
     7
 10
58.2977494116
 20
-41.9746639479
 30
0.0
 40
2.500000000000001
 50
30.0
 51
210.0
  0
ARC
  5
DE
  8
0
  6
CONTINUOUS
 62
     7
 10
67.0477494116
 20
-57.1301085141
 30
0.0
 40
1.500000000000002
 50
30.0
 51
210.0
  0
LINE
  5
DF
  8
0
  6
CONTINUOUS
 62
     7
 10
68.3467875173
 20
-56.3801085141
 30
0.0
 11
69.3467875173
 21
-58.1121593217
 31
0.0
  0
ARC
  5
E0
  8
0
  6
CONTINUOUS
 62
     7
 10
68.0477494116
 20
-58.8621593217
 30
0.0
 40
1.500000000000002
 50
210.0
 51
30.0
  0
LINE
  5
E1
  8
0
  6
CONTINUOUS
 62
     7
 10
65.748711306
 20
-57.8801085141
 30
0.0
 11
66.748711306
 21
-59.6121593217
 31
0.0
  0
ARC
  5
E2
  8
0
  6
CONTINUOUS
 62
     7
 10
63.2977494116
 20
50.6349179857
 30
0.0
 40
2.499999999999994
 50
330.0
 51
150.0
  0
LINE
  5
E3
  8
0
  6
CONTINUOUS
 62
     7
 10
65.4628129211
 20
49.3849179857
 30
0.0
 11
60.4628129211
 21
40.7246639479
 31
0.0
  0
ARC
  5
E4
  8
0
  6
CONTINUOUS
 62
     7
 10
58.2977494116
 20
41.9746639479
 30
0.0
 40
2.500000000000001
 50
150.0
 51
330.0
  0
LINE
  5
E5
  8
0
  6
CONTINUOUS
 62
     7
 10
61.1326859022
 20
51.8849179857
 30
0.0
 11
56.1326859022
 21
43.2246639479
 31
0.0
  0
LINE
  5
E6
  8
0
  6
CONTINUOUS
 62
     7
 10
80.4628129211
 20
75.3656800993
 30
0.0
 11
73.9628129211
 21
64.1073498501
 31
0.0
  0
ARC
  5
E7
  8
0
  6
CONTINUOUS
 62
     7
 10
71.7977494116
 20
65.3573498501
 30
0.0
 40
2.500000000000006
 50
150.0
 51
330.0
  0
LINE
  5
E8
  8
0
  6
CONTINUOUS
 62
     7
 10
76.1326859022
 20
77.8656800993
 30
0.0
 11
69.6326859022
 21
66.6073498501
 31
0.0
  0
ARC
  5
E9
  8
0
  6
CONTINUOUS
 62
     7
 10
78.2977494116
 20
76.6156800993
 30
0.0
 40
2.499999999999994
 50
330.0
 51
150.0
  0
ARC
  5
EA
  8
0
  6
CONTINUOUS
 62
     7
 10
27.2022505884
 20
106.1156800993
 30
0.0
 40
2.50000000000001
 50
330.0
 51
150.0
  0
LINE
  5
EB
  8
0
  6
CONTINUOUS
 62
     7
 10
29.3673140978
 20
104.8656800993
 30
0.0
 11
22.8673140978
 21
93.6073498501
 31
0.0
  0
ARC
  5
EC
  8
0
  6
CONTINUOUS
 62
     7
 10
20.7022505884
 20
94.8573498501
 30
0.0
 40
2.500000000000008
 50
150.0
 51
330.0
  0
LINE
  5
ED
  8
0
  6
CONTINUOUS
 62
     7
 10
25.0371870789
 20
107.3656800993
 30
0.0
 11
18.5371870789
 21
96.1073498501
 31
0.0
  0
CIRCLE
  5
EE
  8
0
  6
CONTINUOUS
 62
     7
 10
-63.6575675496
 20
-48.7088104663
 30
0.0
 40
1.600000000000001
  0
CIRCLE
  5
EF
  8
0
  6
CONTINUOUS
 62
     7
 10
44.2564837983
 20
-24.3064160393
 30
0.0
 40
1.599999999999998
  0
CIRCLE
  5
F0
  8
0
  6
CONTINUOUS
 62
     7
 10
-1.2612343576
 20
58.4783959319
 30
0.0
 40
1.599999999999994
  0
CIRCLE
  5
F1
  8
0
  6
CONTINUOUS
 62
     7
 10
-26.8858987855
 20
17.5636421998
 30
0.0
 40
1.6
  0
CIRCLE
  5
F2
  8
0
  6
CONTINUOUS
 62
     7
 10
70.6316373806
 20
20.5082163202
 30
0.0
 40
1.600000000000005
  0
CIRCLE
  5
F3
  8
0
  6
CONTINUOUS
 62
     7
 10
-9.5176089546
 20
67.679164073
 30
0.0
 40
1.599999999999994
  0
CIRCLE
  5
F4
  8
0
  6
CONTINUOUS
 62
     7
 10
-35.8927625369
 20
22.8645317136
 30
0.0
 40
1.599999999999994
  0
LINE
  5
F5
  8
0
  6
CONTINUOUS
 62
     7
 10
-22.3821704794
 20
-63.8789180379
 30
0.0
 11
-24.8821704794
 21
-68.2090450568
 31
0.0
  0
ARC
  5
F6
  8
0
  6
CONTINUOUS
 62
     7
 10
-27.9132593927
 20
-66.4590450568
 30
0.0
 40
3.500000000000013
 50
150.0
 51
330.0
  0
LINE
  5
F7
  8
0
  6
CONTINUOUS
 62
     7
 10
-30.9443483059
 20
-64.7090450568
 30
0.0
 11
-28.4443483059
 21
-60.3789180379
 31
0.0
  0
ARC
  5
F8
  8
0
  6
CONTINUOUS
 62
     7
 10
-25.4132593927
 20
-62.1289180379
 30
0.0
 40
3.500000000000014
 50
330.0
 51
150.0
  0
CIRCLE
  5
F9
  8
0
  6
CONTINUOUS
 62
     7
 10
-40.2369108901
 20
-68.0042355852
 30
0.0
 40
4.25
  0
LINE
  5
FA
  8
0
  6
CONTINUOUS
 62
     7
 10
-60.6423554564
 20
-68.3475023249
 30
0.0
 11
-61.6815859409
 21
-67.7475023249
 31
0.0
  0
ARC
  5
FB
  8
0
  6
CONTINUOUS
 62
     7
 10
-60.2315859409
 20
-65.2360286539
 30
0.0
 40
2.900000000000006
 50
150.0
 51
240.0
  0
LINE
  5
FC
  8
0
  6
CONTINUOUS
 62
     7
 10
-62.7430596119
 20
-63.7860286539
 30
0.0
 11
-52.6430596119
 21
-46.2923154975
 31
0.0
  0
ARC
  5
FD
  8
0
  6
CONTINUOUS
 62
     7
 10
-50.1315859409
 20
-47.7423154975
 30
0.0
 40
2.900000000000006
 50
60.0
 51
150.0
  0
LINE
  5
FE
  8
0
  6
CONTINUOUS
 62
     7
 10
-47.6423554564
 20
-45.8308418265
 30
0.0
 11
-48.6815859409
 21
-45.2308418265
 31
0.0
  0
ARC
  5
FF
  8
0
  6
CONTINUOUS
 62
     7
 10
-49.0923554564
 20
-48.3423154975
 30
0.0
 40
2.900000000000002
 50
330.0
 51
60.0
  0
LINE
  5
100
  8
0
  6
CONTINUOUS
 62
     7
 10
-46.5808817854
 20
-49.7923154975
 30
0.0
 11
-56.6808817854
 21
-67.2860286539
 31
0.0
  0
ARC
  5
101
  8
0
  6
CONTINUOUS
 62
     7
 10
-59.1923554564
 20
-65.8360286539
 30
0.0
 40
2.900000000000009
 50
240.0
 51
330.0
  0
ENDSEC
  0
EOF
