  0
SECTION
  2
HEADER
  9
$ACADVER
  1
AC1009
  9
$DWGCODEPAGE
  3
ansi_1252
  9
$INSBASE
 10
0.0
 20
0.0
 30
0.0
  9
$EXTMIN
 10
-143.2052737633
 20
-134.5870115929
 30
0.0
  9
$EXTMAX
 10
110.7599038963
 20
134.5870115929
 30
0.0
  9
$LIMMIN
 10
0.0
 20
0.0
  9
$LIMMAX
 10
420.0
 20
297.0
  9
$ORTHOMODE
 70
     0
  9
$REGENMODE
 70
     1
  9
$FILLMODE
 70
     1
  9
$QTEXTMODE
 70
     0
  9
$MIRRTEXT
 70
     1
  9
$DRAGMODE
 70
     2
  9
$LTSCALE
 40
1.0
  9
$OSMODE
 70
    37
  9
$ATTMODE
 70
     1
  9
$TEXTSIZE
 40
6.35
  9
$TRACEWID
 40
1.0
  9
$TEXTSTYLE
  7
STANDARD
  9
$CLAYER
  8
0
  9
$CELTYPE
  6
BYLAYER
  9
$CECOLOR
 62
   256
  9
$DIMSCALE
 40
1.0
  9
$DIMASZ
 40
5.9944
  9
$DIMEXO
 40
0.9906
  9
$DIMDLI
 40
3.75
  9
$DIMRND
 40
0.0
  9
$DIMDLE
 40
0.0
  9
$DIMEXE
 40
0.9906
  9
$DIMTP
 40
0.0
  9
$DIMTM
 40
0.0
  9
$DIMTXT
 40
6.35
  9
$DIMCEN
 40
2.5
  9
$DIMTSZ
 40
0.0
  9
$DIMTOL
 70
     0
  9
$DIMLIM
 70
     0
  9
$DIMTIH
 70
     1
  9
$DIMTOH
 70
     1
  9
$DIMSE1
 70
     0
  9
$DIMSE2
 70
     0
  9
$DIMTAD
 70
     1
  9
$DIMZIN
 70
     0
  9
$DIMBLK
  1

  9
$DIMASO
 70
     1
  9
$DIMSHO
 70
     1
  9
$DIMPOST
  1

  9
$DIMAPOST
  1

  9
$DIMALT
 70
     0
  9
$DIMALTD
 70
     3
  9
$DIMALTF
 40
0.0393700787
  9
$DIMLFAC
 40
1.0
  9
$DIMTOFL
 70
     1
  9
$DIMTVP
 40
0.0
  9
$DIMTIX
 70
     0
  9
$DIMSOXD
 70
     0
  9
$DIMSAH
 70
     0
  9
$DIMBLK1
  1

  9
$DIMBLK2
  1

  9
$DIMSTYLE
  2
ISO-25
  9
$DIMCLRD
 70
     0
  9
$DIMCLRE
 70
     0
  9
$DIMCLRT
 70
     0
  9
$DIMTFAC
 40
1.0
  9
$DIMGAP
 40
1.524
  9
$LUNITS
 70
     2
  9
$LUPREC
 70
     2
  9
$SKETCHINC
 40
1.0
  9
$FILLETRAD
 40
10.0
  9
$AUNITS
 70
     0
  9
$AUPREC
 70
     2
  9
$MENU
  1
.
  9
$ELEVATION
 40
0.0
  9
$PELEVATION
 40
0.0
  9
$THICKNESS
 40
0.0
  9
$LIMCHECK
 70
     0
  9
$CHAMFERA
 40
0.0
  9
$CHAMFERB
 40
0.0
  9
$SKPOLY
 70
     0
  9
$TDCREATE
 40
2456966.483859526
  9
$TDUPDATE
 40
2456966.483884699
  9
$TDINDWG
 40
0.0000000116
  9
$TDUSRTIMER
 40
0.0000000116
  9
$USRTIMER
 70
     1
  9
$ANGBASE
 50
0.0
  9
$ANGDIR
 70
     0
  9
$PDMODE
 70
     0
  9
$PDSIZE
 40
-1.0
  9
$PLINEWID
 40
0.0
  9
$COORDS
 70
     1
  9
$SPLFRAME
 70
     0
  9
$SPLINETYPE
 70
     6
  9
$SPLINESEGS
 70
     8
  9
$ATTDIA
 70
     0
  9
$ATTREQ
 70
     1
  9
$HANDLING
 70
     1
  9
$HANDSEED
  5
243
  9
$SURFTAB1
 70
     6
  9
$SURFTAB2
 70
     6
  9
$SURFTYPE
 70
     6
  9
$SURFU
 70
     6
  9
$SURFV
 70
     6
  9
$UCSNAME
  2

  9
$UCSORG
 10
0.0
 20
0.0
 30
0.0
  9
$UCSXDIR
 10
1.0
 20
0.0
 30
0.0
  9
$UCSYDIR
 10
0.0
 20
1.0
 30
0.0
  9
$PUCSNAME
  2

  9
$PUCSORG
 10
0.0
 20
0.0
 30
0.0
  9
$PUCSXDIR
 10
1.0
 20
0.0
 30
0.0
  9
$PUCSYDIR
 10
0.0
 20
1.0
 30
0.0
  9
$USERI1
 70
     0
  9
$USERI2
 70
     0
  9
$USERI3
 70
     0
  9
$USERI4
 70
     0
  9
$USERI5
 70
     0
  9
$USERR1
 40
0.0
  9
$USERR2
 40
0.0
  9
$USERR3
 40
0.0
  9
$USERR4
 40
0.0
  9
$USERR5
 40
0.0
  9
$WORLDVIEW
 70
     1
  9
$SHADEDGE
 70
     3
  9
$SHADEDIF
 70
    70
  9
$TILEMODE
 70
     1
  9
$MAXACTVP
 70
    64
  9
$PLIMCHECK
 70
     0
  9
$PEXTMIN
 10
1.0000000000E+20
 20
1.0000000000E+20
 30
1.0000000000E+20
  9
$PEXTMAX
 10
-1.0000000000E+20
 20
-1.0000000000E+20
 30
-1.0000000000E+20
  9
$PLIMMIN
 10
0.0
 20
0.0
  9
$PLIMMAX
 10
420.0
 20
297.0
  9
$UNITMODE
 70
     0
  9
$VISRETAIN
 70
     1
  9
$PLINEGEN
 70
     0
  9
$PSLTSCALE
 70
     1
  0
ENDSEC
  0
SECTION
  2
TABLES
  0
TABLE
  2
VPORT
 70
     1
  0
VPORT
  2
*ACTIVE
 70
     0
 10
0.0
 20
0.0
 11
1.0
 21
1.0
 12
-16.2226849335
 22
0.0
 13
0.0
 23
0.0
 14
10.0
 24
10.0
 15
10.0
 25
10.0
 16
0.0
 26
0.0
 36
1.0
 17
0.0
 27
0.0
 37
0.0
 40
274.5575036495
 41
0.9434980934
 42
50.0
 43
0.0
 44
0.0
 50
0.0
 51
0.0
 71
     0
 72
   100
 73
     1
 74
     3
 75
     0
 76
     0
 77
     0
 78
     0
  0
ENDTAB
  0
TABLE
  2
LTYPE
 70
     6
  0
LTYPE
  2
CONTINUOUS
 70
     0
  3
Solid line
 72
    65
 73
     0
 40
0.0
  0
LTYPE
  2
HIDDEN
 70
     0
  3
Hidden __ __ __ __ __ __ __ __ __ __ __ __ __ __
 72
    65
 73
     2
 40
1.905
 49
1.27
 49
-0.635
  0
LTYPE
  2
PHANTOM
 70
     0
  3
Phantom ______  __  __  ______  __  __  ______
 72
    65
 73
     6
 40
12.7
 49
6.35
 49
-1.27
 49
1.27
 49
-1.27
 49
1.27
 49
-1.27
  0
LTYPE
  2
CENTER
 70
     0
  3
Center ____ _ ____ _ ____ _ ____ _ ____ _ ____
 72
    65
 73
     4
 40
10.16
 49
6.35
 49
-1.27
 49
1.27
 49
-1.27
  0
LTYPE
  2
CENTERX2
 70
     0
  3
Center (2x) ________  __  ________  __  _____
 72
    65
 73
     4
 40
20.32
 49
12.7
 49
-2.54
 49
2.54
 49
-2.54
  0
LTYPE
  2
DOT2
 70
     0
  3
Dot (.5x) ........................................
 72
    65
 73
     2
 40
0.635
 49
0.0
 49
-0.635
  0
ENDTAB
  0
TABLE
  2
LAYER
 70
     1
  0
LAYER
  2
0
 70
     0
 62
     7
  6
CONTINUOUS
  0
ENDTAB
  0
TABLE
  2
STYLE
 70
     1
  0
STYLE
  2
STANDARD
 70
     0
 40
0.0
 41
1.0
 50
0.0
 71
     0
 42
6.35
  3
txt
  4

  0
ENDTAB
  0
TABLE
  2
VIEW
 70
     0
  0
ENDTAB
  0
TABLE
  2
UCS
 70
     0
  0
ENDTAB
  0
TABLE
  2
APPID
 70
     1
  0
APPID
  2
ACAD
 70
     0
  0
ENDTAB
  0
TABLE
  2
DIMSTYLE
 70
     1
  0
DIMSTYLE
  2
ISO-25
 70
     0
  3

  4

  5

  6

  7

 40
1.0
 41
2.5
 42
0.625
 43
3.75
 44
1.25
 45
0.0
 46
0.0
 47
0.0
 48
0.0
140
2.5
141
2.5
142
0.0
143
0.0393700787
144
1.0
145
0.0
146
1.0
147
0.625
 71
     0
 72
     0
 73
     0
 74
     0
 75
     0
 76
     0
 77
     1
 78
     8
170
     0
171
     3
172
     1
173
     0
174
     0
175
     0
176
     0
177
     0
178
     0
  0
ENDTAB
  0
ENDSEC
  0
SECTION
  2
BLOCKS
  0
BLOCK
  8
0
  2
$MODEL_SPACE
 70
     0
 10
0.0
 20
0.0
 30
0.0
  3
$MODEL_SPACE
  1

  0
ENDBLK
  5
21
  8
0
  0
BLOCK
 67
     1
  8
0
  2
$PAPER_SPACE
 70
     0
 10
0.0
 20
0.0
 30
0.0
  3
$PAPER_SPACE
  1

  0
ENDBLK
  5
1D
 67
     1
  8
0
  0
ENDSEC
  0
SECTION
  2
ENTITIES
  0
CIRCLE
  5
6F
  8
0
  6
CONTINUOUS
 62
     7
 10
-4.6751164046
 20
-66.1709402839
 30
0.0
 40
5.0
  0
LINE
  5
70
  8
0
  6
CONTINUOUS
 62
     7
 10
-86.2652172207
 20
-36.5276007361
 30
0.0
 11
-74.1408615677
 21
-43.5276007361
 31
0.0
  0
ARC
  5
71
  8
0
  6
CONTINUOUS
 62
     7
 10
-83.7652172207
 20
-32.1974737172
 30
0.0
 40
5.000000000000011
 50
60.0
 51
240.0
  0
LINE
  5
72
  8
0
  6
CONTINUOUS
 62
     7
 10
-69.1408615677
 20
-34.8673466983
 30
0.0
 11
-81.2652172207
 21
-27.8673466983
 31
0.0
  0
ARC
  5
73
  8
0
  6
CONTINUOUS
 62
     7
 10
-71.6408615677
 20
-39.1974737172
 30
0.0
 40
5.000000000000012
 50
240.0
 51
60.0
  0
LINE
  5
74
  8
0
  6
CONTINUOUS
 62
     7
 10
-58.5196493365
 20
-64.6708674758
 30
0.0
 11
-59.5588798211
 21
-64.0708674758
 31
0.0
  0
ARC
  5
75
  8
0
  6
CONTINUOUS
 62
     7
 10
-58.1088798211
 20
-61.5593938049
 30
0.0
 40
2.900000000000002
 50
150.0
 51
240.0
  0
LINE
  5
76
  8
0
  6
CONTINUOUS
 62
     7
 10
-60.6203534921
 20
-60.1093938049
 30
0.0
 11
-50.5203534921
 21
-42.6156806484
 31
0.0
  0
ARC
  5
77
  8
0
  6
CONTINUOUS
 62
     7
 10
-48.0088798211
 20
-44.0656806484
 30
0.0
 40
2.899999999999998
 50
60.0
 51
150.0
  0
LINE
  5
78
  8
0
  6
CONTINUOUS
 62
     7
 10
-45.5196493365
 20
-42.1542069774
 30
0.0
 11
-46.5588798211
 21
-41.5542069774
 31
0.0
  0
ARC
  5
79
  8
0
  6
CONTINUOUS
 62
     7
 10
-46.9696493365
 20
-44.6656806484
 30
0.0
 40
2.900000000000006
 50
330.0
 51
60.0
  0
LINE
  5
7A
  8
0
  6
CONTINUOUS
 62
     7
 10
-44.4581756656
 20
-46.1156806484
 30
0.0
 11
-54.5581756656
 21
-63.6093938049
 31
0.0
  0
ARC
  5
7B
  8
0
  6
CONTINUOUS
 62
     7
 10
-57.0696493365
 20
-62.1593938049
 30
0.0
 40
2.900000000000002
 50
240.0
 51
330.0
  0
CIRCLE
  5
7C
  8
0
  6
CONTINUOUS
 62
     7
 10
-38.1142047703
 20
-64.3276007361
 30
0.0
 40
4.25
  0
LINE
  5
7D
  8
0
  6
CONTINUOUS
 62
     7
 10
-20.2594643596
 20
-60.2022831888
 30
0.0
 11
-22.7594643596
 21
-64.5324102077
 31
0.0
  0
ARC
  5
7E
  8
0
  6
CONTINUOUS
 62
     7
 10
-25.7905532728
 20
-62.7824102077
 30
0.0
 40
3.500000000000016
 50
150.0
 51
330.0
  0
LINE
  5
7F
  8
0
  6
CONTINUOUS
 62
     7
 10
-28.8216421861
 20
-61.0324102077
 30
0.0
 11
-26.3216421861
 21
-56.7022831888
 31
0.0
  0
ARC
  5
80
  8
0
  6
CONTINUOUS
 62
     7
 10
-23.2905532728
 20
-58.4522831888
 30
0.0
 40
3.500000000000008
 50
330.0
 51
150.0
  0
CIRCLE
  5
81
  8
0
  6
CONTINUOUS
 62
     7
 10
-45.1381598848
 20
14.8300545042
 30
0.0
 40
1.599999999999996
  0
CIRCLE
  5
82
  8
0
  6
CONTINUOUS
 62
     7
 10
-19.1381598848
 20
59.8633755009
 30
0.0
 40
1.599999999999994
  0
CIRCLE
  5
83
  8
0
  6
CONTINUOUS
 62
     7
 10
61.4022026672
 20
13.3633755009
 30
0.0
 40
1.600000000000019
  0
CIRCLE
  5
84
  8
0
  6
CONTINUOUS
 62
     7
 10
35.4022026672
 20
-31.6699454958
 30
0.0
 40
1.599999999999998
  0
CIRCLE
  5
85
  8
0
  6
CONTINUOUS
 62
     7
 10
-62.2621940004
 20
-44.6122499618
 30
0.0
 40
1.600000000000001
  0
CIRCLE
  5
86
  8
0
  6
CONTINUOUS
 62
     7
 10
79.485571536
 20
-76.6730484541
 30
0.0
 40
2.5
  0
CIRCLE
  5
87
  8
0
  6
CONTINUOUS
 62
     7
 10
26.6580219789
 20
-107.1730484116
 30
0.0
 40
2.499999999999986
  0
CIRCLE
  5
88
  8
0
  6
CONTINUOUS
 62
     7
 10
79.4855715851
 20
-92.6730484541
 30
0.0
 40
4.100000000000009
  0
CIRCLE
  5
89
  8
0
  6
CONTINUOUS
 62
     7
 10
26.6580219789
 20
107.1730484116
 30
0.0
 40
2.5
  0
CIRCLE
  5
8A
  8
0
  6
CONTINUOUS
 62
     7
 10
79.4855716343
 20
108.6730484541
 30
0.0
 40
2.500000000000028
  0
CIRCLE
  5
8B
  8
0
  6
CONTINUOUS
 62
     7
 10
-133.856406474
 20
-14.5000000233
 30
0.0
 40
2.499999999692081
  0
CIRCLE
  5
8C
  8
0
  6
CONTINUOUS
 62
     7
 10
-106.143593526
 20
30.4999999767
 30
0.0
 40
2.500000005296226
  0
CIRCLE
  5
8D
  8
0
  6
CONTINUOUS
 62
     7
 10
-133.856406474
 20
14.5000000233
 30
0.0
 40
2.499999999692081
  0
CIRCLE
  5
8E
  8
0
  6
CONTINUOUS
 62
     7
 10
-120.0
 20
22.5
 30
0.0
 40
4.100000000000001
  0
CIRCLE
  5
8F
  8
0
  6
CONTINUOUS
 62
     7
 10
-120.0
 20
-22.5
 30
0.0
 40
4.099999999999991
  0
CIRCLE
  5
90
  8
0
  6
CONTINUOUS
 62
     7
 10
79.4855715852
 20
92.6730484541
 30
0.0
 40
4.099999999999994
  0
CIRCLE
  5
91
  8
0
  6
CONTINUOUS
 62
     7
 10
40.5144284149
 20
115.1730484541
 30
0.0
 40
4.099999999999994
  0
CIRCLE
  5
92
  8
0
  6
CONTINUOUS
 62
     7
 10
-106.143593526
 20
-30.4999999767
 30
0.0
 40
2.500000005982823
  0
CIRCLE
  5
93
  8
0
  6
CONTINUOUS
 62
     7
 10
54.3708348508
 20
123.1730484967
 30
0.0
 40
2.500000000000014
  0
CIRCLE
  5
94
  8
0
  6
CONTINUOUS
 62
     7
 10
40.5144284149
 20
-115.1730484541
 30
0.0
 40
4.099999999999994
  0
CIRCLE
  5
95
  8
0
  6
CONTINUOUS
 62
     7
 10
54.3708348508
 20
-123.1730484967
 30
0.0
 40
2.499999999999986
  0
CIRCLE
  5
96
  8
0
  6
CONTINUOUS
 62
     7
 10
79.4855716343
 20
-108.6730484541
 30
0.0
 40
2.5
  0
CIRCLE
  5
97
  8
0
  6
CONTINUOUS
 62
     7
 10
79.485571536
 20
76.6730484541
 30
0.0
 40
2.499999999999972
  0
CIRCLE
  5
98
  8
0
  6
CONTINUOUS
 62
     7
 10
-43.0620232429
 20
-55.6974737172
 30
0.0
 40
1.599999999999994
  0
CIRCLE
  5
99
  8
0
  6
CONTINUOUS
 62
     7
 10
-48.0620232429
 20
-64.357727755
 30
0.0
 40
1.599999999999994
  0
CIRCLE
  5
9A
  8
0
  6
CONTINUOUS
 62
     7
 10
-38.7840777514
 20
-75.487854774
 30
0.0
 40
1.600000000000009
  0
CIRCLE
  5
9B
  8
0
  6
CONTINUOUS
 62
     7
 10
-47.4443317892
 20
-70.487854774
 30
0.0
 40
1.599999999999994
  0
CIRCLE
  5
9C
  8
0
  6
CONTINUOUS
 62
     7
 10
-18.1859319308
 20
-70.0596917326
 30
0.0
 40
1.600000000000023
  0
CIRCLE
  5
9D
  8
0
  6
CONTINUOUS
 62
     7
 10
-23.1859319308
 20
-78.7199457704
 30
0.0
 40
1.600000000000023
  0
CIRCLE
  5
9E
  8
0
  6
CONTINUOUS
 62
     7
 10
-14.9359319308
 20
-64.430526608
 30
0.0
 40
1.600000000000009
  0
CIRCLE
  5
9F
  8
0
  6
CONTINUOUS
 62
     7
 10
-97.7741239977
 20
15.0
 30
0.0
 40
1.999999999999996
  0
CIRCLE
  5
A0
  8
0
  6
CONTINUOUS
 62
     7
 10
-97.7741239977
 20
-15.0
 30
0.0
 40
1.999999999999995
  0
CIRCLE
  5
A1
  8
0
  6
CONTINUOUS
 62
     7
 10
-67.7741239977
 20
-15.0
 30
0.0
 40
1.999999999999995
  0
CIRCLE
  5
A2
  8
0
  6
CONTINUOUS
 62
     7
 10
-67.7741239977
 20
15.0
 30
0.0
 40
1.999999999999996
  0
CIRCLE
  5
A3
  8
0
  6
CONTINUOUS
 62
     7
 10
61.8774430556
 20
77.1748752148
 30
0.0
 40
1.999999999999986
  0
CIRCLE
  5
A4
  8
0
  6
CONTINUOUS
 62
     7
 10
35.8966809421
 20
92.1748752148
 30
0.0
 40
2.0
  0
CIRCLE
  5
A5
  8
0
  6
CONTINUOUS
 62
     7
 10
20.8966809421
 20
66.1941131013
 30
0.0
 40
2.0
  0
CIRCLE
  5
A6
  8
0
  6
CONTINUOUS
 62
     7
 10
46.8774430556
 20
51.1941131013
 30
0.0
 40
2.0
  0
CIRCLE
  5
A7
  8
0
  6
CONTINUOUS
 62
     7
 10
35.8966809421
 20
-92.1748752148
 30
0.0
 40
1.999999999999986
  0
CIRCLE
  5
A8
  8
0
  6
CONTINUOUS
 62
     7
 10
61.8774430556
 20
-77.1748752148
 30
0.0
 40
1.999999999999986
  0
CIRCLE
  5
A9
  8
0
  6
CONTINUOUS
 62
     7
 10
46.8774430556
 20
-51.1941131013
 30
0.0
 40
2.0
  0
CIRCLE
  5
AA
  8
0
  6
CONTINUOUS
 62
     7
 10
20.8966809421
 20
-66.1941131013
 30
0.0
 40
2.0
  0
CIRCLE
  5
AB
  8
0
  6
CONTINUOUS
 62
     7
 10
30.8716285337
 20
-26.8137467647
 30
0.0
 40
1.500000000000014
  0
CIRCLE
  5
AC
  8
0
  6
CONTINUOUS
 62
     7
 10
56.6706666394
 20
14.8714980208
 30
0.0
 40
1.499999999999995
  0
CIRCLE
  5
AD
  8
0
  6
CONTINUOUS
 62
     7
 10
-34.0802767501
 20
10.6862532353
 30
0.0
 40
1.499999999999996
  0
CIRCLE
  5
AE
  8
0
  6
CONTINUOUS
 62
     7
 10
-15.2094418747
 20
56.3714980208
 30
0.0
 40
1.5
  0
ARC
  5
AF
  8
0
  6
CONTINUOUS
 62
     7
 10
2.4176408867
 20
119.1586200581
 30
0.0
 40
9.999999999999991
 50
268.2116694357
 51
331.7883305643
  0
LINE
  5
B0
  8
0
  6
CONTINUOUS
 62
     7
 10
2.1055689982
 20
109.1634906874
 30
0.0
 11
1.7068571784
 21
108.9332943165
 31
0.0
  0
ARC
  5
B1
  8
0
  6
CONTINUOUS
 62
     7
 10
2.4176408867
 20
119.1586200581
 30
0.0
 40
10.25000000000001
 50
174.6047273917
 51
266.0236471805
  0
POLYLINE
  5
B2
  8
0
  6
CONTINUOUS
 62
     7
 66
     1
 10
0.0
 20
0.0
 30
0.0
  0
VERTEX
  5
FB
  8
0
  6
CONTINUOUS
 62
     7
 10
-7.7869488043
 20
120.122388307
 30
0.0
  0
VERTEX
  5
FC
  8
0
  6
CONTINUOUS
 62
     7
 10
-7.7970865403
 20
120.1623188627
 30
0.0
  0
VERTEX
  5
FD
  8
0
  6
CONTINUOUS
 62
     7
 10
-7.8323569856
 20
120.2219961822
 30
0.0
  0
VERTEX
  5
FE
  8
0
  6
CONTINUOUS
 62
     7
 10
-7.8918252793
 20
120.2982914968
 30
0.0
  0
VERTEX
  5
FF
  8
0
  6
CONTINUOUS
 62
     7
 10
-7.9745565607
 20
120.3880760379
 30
0.0
  0
VERTEX
  5
100
  8
0
  6
CONTINUOUS
 62
     7
 10
-8.0796159689
 20
120.488221037
 30
0.0
  0
VERTEX
  5
101
  8
0
  6
CONTINUOUS
 62
     7
 10
-8.2060686433
 20
120.5955977254
 30
0.0
  0
VERTEX
  5
102
  8
0
  6
CONTINUOUS
 62
     7
 10
-8.3529797229
 20
120.7070773345
 30
0.0
  0
VERTEX
  5
103
  8
0
  6
CONTINUOUS
 62
     7
 10
-8.519414347
 20
120.8195310959
 30
0.0
  0
VERTEX
  5
104
  8
0
  6
CONTINUOUS
 62
     7
 10
-8.7044376548
 20
120.9298302409
 30
0.0
  0
VERTEX
  5
105
  8
0
  6
CONTINUOUS
 62
     7
 10
-8.9071147855
 20
121.0348460008
 30
0.0
  0
VERTEX
  5
106
  8
0
  6
CONTINUOUS
 62
     7
 10
-9.1265108782
 20
121.1314496073
 30
0.0
  0
VERTEX
  5
107
  8
0
  6
CONTINUOUS
 62
     7
 10
-9.3616910722
 20
121.2165122915
 30
0.0
  0
VERTEX
  5
108
  8
0
  6
CONTINUOUS
 62
     7
 10
-9.6117205067
 20
121.286905285
 30
0.0
  0
VERTEX
  5
109
  8
0
  6
CONTINUOUS
 62
     7
 10
-9.8756643209
 20
121.3394998192
 30
0.0
  0
VERTEX
  5
10A
  8
0
  6
CONTINUOUS
 62
     7
 10
-10.152587654
 20
121.3711671254
 30
0.0
  0
VERTEX
  5
10B
  8
0
  6
CONTINUOUS
 62
     7
 10
-10.4415556452
 20
121.3787784352
 30
0.0
  0
VERTEX
  5
10C
  8
0
  6
CONTINUOUS
 62
     7
 10
-10.7416334336
 20
121.3592049798
 30
0.0
  0
VERTEX
  5
10D
  8
0
  6
CONTINUOUS
 62
     7
 10
-11.0518861585
 20
121.3093179908
 30
0.0
  0
VERTEX
  5
10E
  8
0
  6
CONTINUOUS
 62
     7
 10
-11.3713789592
 20
121.2259886995
 30
0.0
  0
VERTEX
  5
10F
  8
0
  6
CONTINUOUS
 62
     7
 10
-11.6991769747
 20
121.1060883374
 30
0.0
  0
VERTEX
  5
110
  8
0
  6
CONTINUOUS
 62
     7
 10
-12.0343453443
 20
120.9464881359
 30
0.0
  0
VERTEX
  5
111
  8
0
  6
CONTINUOUS
 62
     7
 10
-12.3759492072
 20
120.7440593263
 30
0.0
  0
VERTEX
  5
112
  8
0
  6
CONTINUOUS
 62
     7
 10
-12.7230537025
 20
120.4956731401
 30
0.0
  0
VERTEX
  5
113
  8
0
  6
CONTINUOUS
 62
     7
 10
-13.0747239696
 20
120.1982008088
 30
0.0
  0
SEQEND
  5
237
  8
0
  6
CONTINUOUS
 62
     7
  0
POLYLINE
  5
B3
  8
0
  6
CONTINUOUS
 62
     7
 66
     1
 10
0.0
 20
0.0
 30
0.0
  0
VERTEX
  5
114
  8
0
  6
CONTINUOUS
 62
     7
 10
-13.0747239696
 20
120.1982008088
 30
0.0
  0
VERTEX
  5
115
  8
0
  6
CONTINUOUS
 62
     7
 10
-13.8249062645
 20
119.468614055
 30
0.0
  0
VERTEX
  5
116
  8
0
  6
CONTINUOUS
 62
     7
 10
-14.5085524879
 20
118.7161660002
 30
0.0
  0
VERTEX
  5
117
  8
0
  6
CONTINUOUS
 62
     7
 10
-15.1374310446
 20
117.9374835538
 30
0.0
  0
VERTEX
  5
118
  8
0
  6
CONTINUOUS
 62
     7
 10
-15.7233103395
 20
117.129193625
 30
0.0
  0
VERTEX
  5
119
  8
0
  6
CONTINUOUS
 62
     7
 10
-16.2779587774
 20
116.2879231235
 30
0.0
  0
VERTEX
  5
11A
  8
0
  6
CONTINUOUS
 62
     7
 10
-16.8131447631
 20
115.4102989584
 30
0.0
  0
VERTEX
  5
11B
  8
0
  6
CONTINUOUS
 62
     7
 10
-17.3406367014
 20
114.4929480393
 30
0.0
  0
VERTEX
  5
11C
  8
0
  6
CONTINUOUS
 62
     7
 10
-17.8722029972
 20
113.5324972756
 30
0.0
  0
VERTEX
  5
11D
  8
0
  6
CONTINUOUS
 62
     7
 10
-18.4196120552
 20
112.5255735765
 30
0.0
  0
VERTEX
  5
11E
  8
0
  6
CONTINUOUS
 62
     7
 10
-18.9946322804
 20
111.4688038516
 30
0.0
  0
VERTEX
  5
11F
  8
0
  6
CONTINUOUS
 62
     7
 10
-19.6090320775
 20
110.3588150103
 30
0.0
  0
VERTEX
  5
120
  8
0
  6
CONTINUOUS
 62
     7
 10
-20.2745798513
 20
109.1922339619
 30
0.0
  0
VERTEX
  5
121
  8
0
  6
CONTINUOUS
 62
     7
 10
-21.0030440067
 20
107.9656876158
 30
0.0
  0
VERTEX
  5
122
  8
0
  6
CONTINUOUS
 62
     7
 10
-21.8061929485
 20
106.6758028814
 30
0.0
  0
VERTEX
  5
123
  8
0
  6
CONTINUOUS
 62
     7
 10
-22.6957950816
 20
105.3192066682
 30
0.0
  0
VERTEX
  5
124
  8
0
  6
CONTINUOUS
 62
     7
 10
-23.6836188106
 20
103.8925258855
 30
0.0
  0
VERTEX
  5
125
  8
0
  6
CONTINUOUS
 62
     7
 10
-24.7775977827
 20
102.3953608778
 30
0.0
  0
VERTEX
  5
126
  8
0
  6
CONTINUOUS
 62
     7
 10
-25.9703266135
 20
100.8392057297
 30
0.0
  0
VERTEX
  5
127
  8
0
  6
CONTINUOUS
 62
     7
 10
-27.2505651609
 20
99.2385279607
 30
0.0
  0
VERTEX
  5
128
  8
0
  6
CONTINUOUS
 62
     7
 10
-28.6070732826
 20
97.6077950905
 30
0.0
  0
VERTEX
  5
129
  8
0
  6
CONTINUOUS
 62
     7
 10
-30.0286108367
 20
95.9614746388
 30
0.0
  0
VERTEX
  5
12A
  8
0
  6
CONTINUOUS
 62
     7
 10
-31.5039376808
 20
94.3140341251
 30
0.0
  0
VERTEX
  5
12B
  8
0
  6
CONTINUOUS
 62
     7
 10
-33.0218136728
 20
92.6799410691
 30
0.0
  0
VERTEX
  5
12C
  8
0
  6
CONTINUOUS
 62
     7
 10
-34.5709986707
 20
91.0736629904
 30
0.0
  0
VERTEX
  5
12D
  8
0
  6
CONTINUOUS
 62
     7
 10
-36.1402525321
 20
89.5096674086
 30
0.0
  0
VERTEX
  5
12E
  8
0
  6
CONTINUOUS
 62
     7
 10
-37.7183351151
 20
88.0024218434
 30
0.0
  0
VERTEX
  5
12F
  8
0
  6
CONTINUOUS
 62
     7
 10
-39.2940062774
 20
86.5663938144
 30
0.0
  0
VERTEX
  5
130
  8
0
  6
CONTINUOUS
 62
     7
 10
-40.8560258769
 20
85.2160508412
 30
0.0
  0
VERTEX
  5
131
  8
0
  6
CONTINUOUS
 62
     7
 10
-42.3931537714
 20
83.9658604434
 30
0.0
  0
VERTEX
  5
132
  8
0
  6
CONTINUOUS
 62
     7
 10
-43.8941498187
 20
82.8302901407
 30
0.0
  0
VERTEX
  5
133
  8
0
  6
CONTINUOUS
 62
     7
 10
-45.3477738768
 20
81.8238074526
 30
0.0
  0
VERTEX
  5
134
  8
0
  6
CONTINUOUS
 62
     7
 10
-46.7427858034
 20
80.9608798988
 30
0.0
  0
SEQEND
  5
238
  8
0
  6
CONTINUOUS
 62
     7
  0
LINE
  5
B4
  8
0
  6
CONTINUOUS
 62
     7
 10
-46.7427858034
 20
80.9608798932
 30
0.0
 11
-135.6602540259
 21
29.6243556793
 31
0.0
  0
POLYLINE
  5
B5
  8
0
  6
CONTINUOUS
 62
     7
 66
     1
 10
0.0
 20
0.0
 30
0.0
  0
VERTEX
  5
135
  8
0
  6
CONTINUOUS
 62
     7
 10
-135.6602540259
 20
29.6243556793
 30
0.0
  0
VERTEX
  5
136
  8
0
  6
CONTINUOUS
 62
     7
 10
-137.2237005324
 20
28.6219829248
 30
0.0
  0
VERTEX
  5
137
  8
0
  6
CONTINUOUS
 62
     7
 10
-138.5891691084
 20
27.5449153898
 30
0.0
  0
VERTEX
  5
138
  8
0
  6
CONTINUOUS
 62
     7
 10
-139.7634332942
 20
26.4048957607
 30
0.0
  0
VERTEX
  5
139
  8
0
  6
CONTINUOUS
 62
     7
 10
-140.7532666303
 20
25.2136667236
 30
0.0
  0
VERTEX
  5
13A
  8
0
  6
CONTINUOUS
 62
     7
 10
-141.5654426568
 20
23.9829709647
 30
0.0
  0
VERTEX
  5
13B
  8
0
  6
CONTINUOUS
 62
     7
 10
-142.2067349144
 20
22.7245511703
 30
0.0
  0
VERTEX
  5
13C
  8
0
  6
CONTINUOUS
 62
     7
 10
-142.6839169433
 20
21.4501500265
 30
0.0
  0
VERTEX
  5
13D
  8
0
  6
CONTINUOUS
 62
     7
 10
-143.0037622839
 20
20.1715102197
 30
0.0
  0
VERTEX
  5
13E
  8
0
  6
CONTINUOUS
 62
     7
 10
-143.1730444767
 20
18.9003744359
 30
0.0
  0
VERTEX
  5
13F
  8
0
  6
CONTINUOUS
 62
     7
 10
-143.1985370619
 20
17.6484853614
 30
0.0
  0
VERTEX
  5
140
  8
0
  6
CONTINUOUS
 62
     7
 10
-143.08701358
 20
16.4275856823
 30
0.0
  0
VERTEX
  5
141
  8
0
  6
CONTINUOUS
 62
     7
 10
-142.8452475713
 20
15.249418085
 30
0.0
  0
VERTEX
  5
142
  8
0
  6
CONTINUOUS
 62
     7
 10
-142.4800125763
 20
14.1257252557
 30
0.0
  0
VERTEX
  5
143
  8
0
  6
CONTINUOUS
 62
     7
 10
-141.9980821352
 20
13.0682498804
 30
0.0
  0
VERTEX
  5
144
  8
0
  6
CONTINUOUS
 62
     7
 10
-141.4062297886
 20
12.0887346455
 30
0.0
  0
VERTEX
  5
145
  8
0
  6
CONTINUOUS
 62
     7
 10
-140.7112290768
 20
11.1989222371
 30
0.0
  0
VERTEX
  5
146
  8
0
  6
CONTINUOUS
 62
     7
 10
-139.9198535401
 20
10.4105553415
 30
0.0
  0
VERTEX
  5
147
  8
0
  6
CONTINUOUS
 62
     7
 10
-139.0388767189
 20
9.7353766449
 30
0.0
  0
VERTEX
  5
148
  8
0
  6
CONTINUOUS
 62
     7
 10
-138.0750721537
 20
9.1851288335
 30
0.0
  0
VERTEX
  5
149
  8
0
  6
CONTINUOUS
 62
     7
 10
-137.0352133848
 20
8.7715545934
 30
0.0
  0
VERTEX
  5
14A
  8
0
  6
CONTINUOUS
 62
     7
 10
-135.9260739526
 20
8.5063966109
 30
0.0
  0
VERTEX
  5
14B
  8
0
  6
CONTINUOUS
 62
     7
 10
-134.7544273974
 20
8.4013975723
 30
0.0
  0
VERTEX
  5
14C
  8
0
  6
CONTINUOUS
 62
     7
 10
-133.5270472597
 20
8.4683001637
 30
0.0
  0
VERTEX
  5
14D
  8
0
  6
CONTINUOUS
 62
     7
 10
-132.2507070798
 20
8.7188470712
 30
0.0
  0
SEQEND
  5
239
  8
0
  6
CONTINUOUS
 62
     7
  0
LINE
  5
B6
  8
0
  6
CONTINUOUS
 62
     7
 10
-132.2507070798
 20
8.7188470712
 30
0.0
 11
-119.9502896548
 21
12.1352543125
 31
0.0
  0
ARC
  5
B7
  8
0
  6
CONTINUOUS
 62
     7
 10
-117.2741239977
 20
2.4999993924
 30
0.0
 40
10.0
 50
90.0
 51
105.5224877176
  0
LINE
  5
B8
  8
0
  6
CONTINUOUS
 62
     7
 10
-117.2741239977
 20
12.4999993924
 30
0.0
 11
-106.2741239977
 21
12.4999993924
 31
0.0
  0
ARC
  5
B9
  8
0
  6
CONTINUOUS
 62
     7
 10
-106.2741239977
 20
8.4999993924
 30
0.0
 40
4.000000000000002
 50
0.0
 51
90.0
  0
LINE
  5
BA
  8
0
  6
CONTINUOUS
 62
     7
 10
-102.2741239977
 20
8.4999993924
 30
0.0
 11
-102.2741239977
 21
6.0
 31
0.0
  0
ARC
  5
BB
  8
0
  6
CONTINUOUS
 62
     7
 10
-100.2741239977
 20
6.0
 30
0.0
 40
2.0
 50
180.0
 51
270.0
  0
LINE
  5
BC
  8
0
  6
CONTINUOUS
 62
     7
 10
-54.2741239977
 20
4.0
 30
0.0
 11
-100.2741239977
 21
4.0
 31
0.0
  0
ARC
  5
BD
  8
0
  6
CONTINUOUS
 62
     7
 10
-54.2741239977
 20
0.0
 30
0.0
 40
4.0
 50
270.0
 51
90.0
  0
LINE
  5
BE
  8
0
  6
CONTINUOUS
 62
     7
 10
-100.2741239977
 20
-4.0
 30
0.0
 11
-54.2741239977
 21
-4.0
 31
0.0
  0
ARC
  5
BF
  8
0
  6
CONTINUOUS
 62
     7
 10
-100.2741239977
 20
-6.0
 30
0.0
 40
2.0
 50
90.0
 51
180.0
  0
LINE
  5
C0
  8
0
  6
CONTINUOUS
 62
     7
 10
-102.2741239977
 20
-6.0
 30
0.0
 11
-102.2741239977
 21
-8.4999993924
 31
0.0
  0
ARC
  5
C1
  8
0
  6
CONTINUOUS
 62
     7
 10
-106.2741239977
 20
-8.4999993924
 30
0.0
 40
4.0
 50
270.0
 51
0.0
  0
LINE
  5
C2
  8
0
  6
CONTINUOUS
 62
     7
 10
-106.2741239977
 20
-12.4999993924
 30
0.0
 11
-117.2741239977
 21
-12.4999993924
 31
0.0
  0
ARC
  5
C3
  8
0
  6
CONTINUOUS
 62
     7
 10
-117.2741239977
 20
-2.4999993924
 30
0.0
 40
9.999999999999996
 50
254.4775122824
 51
270.0
  0
LINE
  5
C4
  8
0
  6
CONTINUOUS
 62
     7
 10
-119.9502896548
 20
-12.1352543125
 30
0.0
 11
-132.2507070798
 21
-8.7188470712
 31
0.0
  0
POLYLINE
  5
C5
  8
0
  6
CONTINUOUS
 62
     7
 66
     1
 10
0.0
 20
0.0
 30
0.0
  0
VERTEX
  5
14E
  8
0
  6
CONTINUOUS
 62
     7
 10
-132.2507070798
 20
-8.7188470712
 30
0.0
  0
VERTEX
  5
14F
  8
0
  6
CONTINUOUS
 62
     7
 10
-133.5270472597
 20
-8.4683001637
 30
0.0
  0
VERTEX
  5
150
  8
0
  6
CONTINUOUS
 62
     7
 10
-134.7544273974
 20
-8.4013975723
 30
0.0
  0
VERTEX
  5
151
  8
0
  6
CONTINUOUS
 62
     7
 10
-135.9260739526
 20
-8.5063966109
 30
0.0
  0
VERTEX
  5
152
  8
0
  6
CONTINUOUS
 62
     7
 10
-137.0352133848
 20
-8.7715545934
 30
0.0
  0
VERTEX
  5
153
  8
0
  6
CONTINUOUS
 62
     7
 10
-138.0750721537
 20
-9.1851288335
 30
0.0
  0
VERTEX
  5
154
  8
0
  6
CONTINUOUS
 62
     7
 10
-139.0388767189
 20
-9.7353766449
 30
0.0
  0
VERTEX
  5
155
  8
0
  6
CONTINUOUS
 62
     7
 10
-139.9198535401
 20
-10.4105553415
 30
0.0
  0
VERTEX
  5
156
  8
0
  6
CONTINUOUS
 62
     7
 10
-140.7112290768
 20
-11.1989222371
 30
0.0
  0
VERTEX
  5
157
  8
0
  6
CONTINUOUS
 62
     7
 10
-141.4062297886
 20
-12.0887346455
 30
0.0
  0
VERTEX
  5
158
  8
0
  6
CONTINUOUS
 62
     7
 10
-141.9980821352
 20
-13.0682498804
 30
0.0
  0
VERTEX
  5
159
  8
0
  6
CONTINUOUS
 62
     7
 10
-142.4800125763
 20
-14.1257252557
 30
0.0
  0
VERTEX
  5
15A
  8
0
  6
CONTINUOUS
 62
     7
 10
-142.8452475713
 20
-15.249418085
 30
0.0
  0
VERTEX
  5
15B
  8
0
  6
CONTINUOUS
 62
     7
 10
-143.08701358
 20
-16.4275856823
 30
0.0
  0
VERTEX
  5
15C
  8
0
  6
CONTINUOUS
 62
     7
 10
-143.1985370619
 20
-17.6484853614
 30
0.0
  0
VERTEX
  5
15D
  8
0
  6
CONTINUOUS
 62
     7
 10
-143.1730444767
 20
-18.9003744359
 30
0.0
  0
VERTEX
  5
15E
  8
0
  6
CONTINUOUS
 62
     7
 10
-143.0037622839
 20
-20.1715102197
 30
0.0
  0
VERTEX
  5
15F
  8
0
  6
CONTINUOUS
 62
     7
 10
-142.6839169433
 20
-21.4501500265
 30
0.0
  0
VERTEX
  5
160
  8
0
  6
CONTINUOUS
 62
     7
 10
-142.2067349144
 20
-22.7245511703
 30
0.0
  0
VERTEX
  5
161
  8
0
  6
CONTINUOUS
 62
     7
 10
-141.5654426568
 20
-23.9829709647
 30
0.0
  0
VERTEX
  5
162
  8
0
  6
CONTINUOUS
 62
     7
 10
-140.7532666303
 20
-25.2136667236
 30
0.0
  0
VERTEX
  5
163
  8
0
  6
CONTINUOUS
 62
     7
 10
-139.7634332942
 20
-26.4048957607
 30
0.0
  0
VERTEX
  5
164
  8
0
  6
CONTINUOUS
 62
     7
 10
-138.5891691084
 20
-27.5449153898
 30
0.0
  0
VERTEX
  5
165
  8
0
  6
CONTINUOUS
 62
     7
 10
-137.2237005324
 20
-28.6219829248
 30
0.0
  0
VERTEX
  5
166
  8
0
  6
CONTINUOUS
 62
     7
 10
-135.6602540259
 20
-29.6243556793
 30
0.0
  0
SEQEND
  5
23A
  8
0
  6
CONTINUOUS
 62
     7
  0
LINE
  5
C6
  8
0
  6
CONTINUOUS
 62
     7
 10
-135.6602540259
 20
-29.6243556793
 30
0.0
 11
42.1746824131
 21
-132.2974041037
 31
0.0
  0
POLYLINE
  5
C7
  8
0
  6
CONTINUOUS
 62
     7
 66
     1
 10
0.0
 20
0.0
 30
0.0
  0
VERTEX
  5
167
  8
0
  6
CONTINUOUS
 62
     7
 10
42.1746824131
 20
-132.2974041037
 30
0.0
  0
VERTEX
  5
168
  8
0
  6
CONTINUOUS
 62
     7
 10
43.8244859359
 20
-133.1502021186
 30
0.0
  0
VERTEX
  5
169
  8
0
  6
CONTINUOUS
 62
     7
 10
45.439988071
 20
-133.7941988261
 30
0.0
  0
VERTEX
  5
16A
  8
0
  6
CONTINUOUS
 62
     7
 10
47.0144061238
 20
-134.2411316273
 30
0.0
  0
VERTEX
  5
16B
  8
0
  6
CONTINUOUS
 62
     7
 10
48.5409574
 20
-134.5027379235
 30
0.0
  0
VERTEX
  5
16C
  8
0
  6
CONTINUOUS
 62
     7
 10
50.0128592052
 20
-134.5907551156
 30
0.0
  0
VERTEX
  5
16D
  8
0
  6
CONTINUOUS
 62
     7
 10
51.423328845
 20
-134.516920605
 30
0.0
  0
VERTEX
  5
16E
  8
0
  6
CONTINUOUS
 62
     7
 10
52.7655836251
 20
-134.2929717927
 30
0.0
  0
VERTEX
  5
16F
  8
0
  6
CONTINUOUS
 62
     7
 10
54.032840851
 20
-133.9306460799
 30
0.0
  0
VERTEX
  5
170
  8
0
  6
CONTINUOUS
 62
     7
 10
55.2183178285
 20
-133.4416808676
 30
0.0
  0
VERTEX
  5
171
  8
0
  6
CONTINUOUS
 62
     7
 10
56.315231863
 20
-132.8378135571
 30
0.0
  0
VERTEX
  5
172
  8
0
  6
CONTINUOUS
 62
     7
 10
57.3168002602
 20
-132.1307815496
 30
0.0
  0
VERTEX
  5
173
  8
0
  6
CONTINUOUS
 62
     7
 10
58.2162403257
 20
-131.332322246
 30
0.0
  0
VERTEX
  5
174
  8
0
  6
CONTINUOUS
 62
     7
 10
59.0067693651
 20
-130.4541730477
 30
0.0
  0
VERTEX
  5
175
  8
0
  6
CONTINUOUS
 62
     7
 10
59.6816046841
 20
-129.5080713557
 30
0.0
  0
VERTEX
  5
176
  8
0
  6
CONTINUOUS
 62
     7
 10
60.2339635883
 20
-128.5057545711
 30
0.0
  0
VERTEX
  5
177
  8
0
  6
CONTINUOUS
 62
     7
 10
60.6570633832
 20
-127.4589600952
 30
0.0
  0
VERTEX
  5
178
  8
0
  6
CONTINUOUS
 62
     7
 10
60.9441213746
 20
-126.379425329
 30
0.0
  0
VERTEX
  5
179
  8
0
  6
CONTINUOUS
 62
     7
 10
61.0883548679
 20
-125.2788876737
 30
0.0
  0
VERTEX
  5
17A
  8
0
  6
CONTINUOUS
 62
     7
 10
61.0829811688
 20
-124.1690845305
 30
0.0
  0
VERTEX
  5
17B
  8
0
  6
CONTINUOUS
 62
     7
 10
60.921217583
 20
-123.0617533005
 30
0.0
  0
VERTEX
  5
17C
  8
0
  6
CONTINUOUS
 62
     7
 10
60.5962814161
 20
-121.9686313848
 30
0.0
  0
VERTEX
  5
17D
  8
0
  6
CONTINUOUS
 62
     7
 10
60.1013899736
 20
-120.9014561846
 30
0.0
  0
VERTEX
  5
17E
  8
0
  6
CONTINUOUS
 62
     7
 10
59.4297605612
 20
-119.871965101
 30
0.0
  0
VERTEX
  5
17F
  8
0
  6
CONTINUOUS
 62
     7
 10
58.5746104845
 20
-118.8918955352
 30
0.0
  0
SEQEND
  5
23B
  8
0
  6
CONTINUOUS
 62
     7
  0
LINE
  5
C8
  8
0
  6
CONTINUOUS
 62
     7
 10
58.5746104845
 20
-118.8918955352
 30
0.0
 11
49.4657063114
 21
-109.9476251886
 31
0.0
  0
ARC
  5
C9
  8
0
  6
CONTINUOUS
 62
     7
 10
56.4719990156
 20
-102.8123702848
 30
0.0
 40
10.0
 50
210.0
 51
225.5224877176
  0
LINE
  5
CA
  8
0
  6
CONTINUOUS
 62
     7
 10
47.8117449778
 20
-107.8123702848
 30
0.0
 11
42.3117449778
 21
-98.2860908431
 31
0.0
  0
ARC
  5
CB
  8
0
  6
CONTINUOUS
 62
     7
 10
45.7758465929
 20
-96.2860908431
 30
0.0
 40
4.000000000000008
 50
120.0
 51
210.0
  0
LINE
  5
CC
  8
0
  6
CONTINUOUS
 62
     7
 10
43.7758465929
 20
-92.821989228
 30
0.0
 11
45.9409095761
 21
-91.5719895318
 31
0.0
  0
ARC
  5
CD
  8
0
  6
CONTINUOUS
 62
     7
 10
44.9409095761
 20
-89.8399387242
 30
0.0
 40
2.000000000000008
 50
300.0
 51
30.0
  0
LINE
  5
CE
  8
0
  6
CONTINUOUS
 62
     7
 10
23.6729603837
 20
-49.0027701502
 30
0.0
 11
46.6729603837
 21
-88.8399387242
 31
0.0
  0
ARC
  5
CF
  8
0
  6
CONTINUOUS
 62
     7
 10
27.1370619989
 20
-47.0027701502
 30
0.0
 40
3.999999999999999
 50
30.0
 51
210.0
  0
LINE
  5
D0
  8
0
  6
CONTINUOUS
 62
     7
 10
53.601163614
 20
-84.8399387242
 30
0.0
 11
30.601163614
 21
-45.0027701502
 31
0.0
  0
ARC
  5
D1
  8
0
  6
CONTINUOUS
 62
     7
 10
55.3332144216
 20
-83.8399387242
 30
0.0
 40
2.000000000000002
 50
210.0
 51
300.0
  0
LINE
  5
D2
  8
0
  6
CONTINUOUS
 62
     7
 10
56.3332144216
 20
-85.5719895318
 30
0.0
 11
58.4982774048
 21
-84.3219898356
 31
0.0
  0
ARC
  5
D3
  8
0
  6
CONTINUOUS
 62
     7
 10
60.4982774048
 20
-87.7860914508
 30
0.0
 40
4.000000000000012
 50
30.0
 51
120.0
  0
LINE
  5
D4
  8
0
  6
CONTINUOUS
 62
     7
 10
63.9623790199
 20
-85.7860914508
 30
0.0
 11
69.4623790199
 21
-95.3123708924
 31
0.0
  0
ARC
  5
D5
  8
0
  6
CONTINUOUS
 62
     7
 10
60.8021249821
 20
-100.3123708924
 30
0.0
 40
9.999999999999993
 50
14.4775122824
 51
30.0
  0
LINE
  5
D6
  8
0
  6
CONTINUOUS
 62
     7
 10
70.4845833434
 20
-97.8123708761
 30
0.0
 11
73.6760965953
 21
-110.1730484639
 31
0.0
  0
POLYLINE
  5
D7
  8
0
  6
CONTINUOUS
 62
     7
 66
     1
 10
0.0
 20
0.0
 30
0.0
  0
VERTEX
  5
180
  8
0
  6
CONTINUOUS
 62
     7
 10
73.6760965953
 20
-110.1730484639
 30
0.0
  0
VERTEX
  5
181
  8
0
  6
CONTINUOUS
 62
     7
 10
74.0972866984
 20
-111.4036649373
 30
0.0
  0
VERTEX
  5
182
  8
0
  6
CONTINUOUS
 62
     7
 10
74.6530374237
 20
-112.5000586123
 30
0.0
  0
VERTEX
  5
183
  8
0
  6
CONTINUOUS
 62
     7
 10
75.3297925362
 20
-113.4622347739
 30
0.0
  0
VERTEX
  5
184
  8
0
  6
CONTINUOUS
 62
     7
 10
76.1139958013
 20
-114.2901987071
 30
0.0
  0
VERTEX
  5
185
  8
0
  6
CONTINUOUS
 62
     7
 10
76.9920909842
 20
-114.9839556971
 30
0.0
  0
VERTEX
  5
186
  8
0
  6
CONTINUOUS
 62
     7
 10
77.9505218501
 20
-115.5435110288
 30
0.0
  0
VERTEX
  5
187
  8
0
  6
CONTINUOUS
 62
     7
 10
78.9757321643
 20
-115.9688699875
 30
0.0
  0
VERTEX
  5
188
  8
0
  6
CONTINUOUS
 62
     7
 10
80.054165692
 20
-116.260037858
 30
0.0
  0
VERTEX
  5
189
  8
0
  6
CONTINUOUS
 62
     7
 10
81.1722661985
 20
-116.4170199256
 30
0.0
  0
VERTEX
  5
18A
  8
0
  6
CONTINUOUS
 62
     7
 10
82.3164774489
 20
-116.4398214752
 30
0.0
  0
VERTEX
  5
18B
  8
0
  6
CONTINUOUS
 62
     7
 10
83.4732432085
 20
-116.328447792
 30
0.0
  0
VERTEX
  5
18C
  8
0
  6
CONTINUOUS
 62
     7
 10
84.6290072426
 20
-116.082904161
 30
0.0
  0
VERTEX
  5
18D
  8
0
  6
CONTINUOUS
 62
     7
 10
85.7702133165
 20
-115.7031958672
 30
0.0
  0
VERTEX
  5
18E
  8
0
  6
CONTINUOUS
 62
     7
 10
86.8833051952
 20
-115.1893281958
 30
0.0
  0
VERTEX
  5
18F
  8
0
  6
CONTINUOUS
 62
     7
 10
87.9547266441
 20
-114.5413064318
 30
0.0
  0
VERTEX
  5
190
  8
0
  6
CONTINUOUS
 62
     7
 10
88.9709214285
 20
-113.7591358602
 30
0.0
  0
VERTEX
  5
191
  8
0
  6
CONTINUOUS
 62
     7
 10
89.9183333135
 20
-112.8428217661
 30
0.0
  0
VERTEX
  5
192
  8
0
  6
CONTINUOUS
 62
     7
 10
90.7834060644
 20
-111.7923694347
 30
0.0
  0
VERTEX
  5
193
  8
0
  6
CONTINUOUS
 62
     7
 10
91.5525834464
 20
-110.6077841509
 30
0.0
  0
VERTEX
  5
194
  8
0
  6
CONTINUOUS
 62
     7
 10
92.2123092248
 20
-109.2890711999
 30
0.0
  0
VERTEX
  5
195
  8
0
  6
CONTINUOUS
 62
     7
 10
92.7490271648
 20
-107.8362358666
 30
0.0
  0
VERTEX
  5
196
  8
0
  6
CONTINUOUS
 62
     7
 10
93.1491810316
 20
-106.2492834363
 30
0.0
  0
VERTEX
  5
197
  8
0
  6
CONTINUOUS
 62
     7
 10
93.3992145906
 20
-104.5282191938
 30
0.0
  0
VERTEX
  5
198
  8
0
  6
CONTINUOUS
 62
     7
 10
93.4855716068
 20
-102.6730484243
 30
0.0
  0
SEQEND
  5
23C
  8
0
  6
CONTINUOUS
 62
     7
  0
LINE
  5
D8
  8
0
  6
CONTINUOUS
 62
     7
 10
93.4855716068
 20
-102.6730484243
 30
0.0
 11
93.4855716068
 21
0.0
 31
0.0
  0
POLYLINE
  5
D9
  8
0
  6
CONTINUOUS
 62
     7
 66
     1
 10
0.0
 20
0.0
 30
0.0
  0
VERTEX
  5
199
  8
0
  6
CONTINUOUS
 62
     7
 10
110.6320573744
 20
48.7760572992
 30
0.0
  0
VERTEX
  5
19A
  8
0
  6
CONTINUOUS
 62
     7
 10
110.3753078588
 20
47.7615869975
 30
0.0
  0
VERTEX
  5
19B
  8
0
  6
CONTINUOUS
 62
     7
 10
110.06549184
 20
46.7933079735
 30
0.0
  0
VERTEX
  5
19C
  8
0
  6
CONTINUOUS
 62
     7
 10
109.7055723383
 20
45.8593419442
 30
0.0
  0
VERTEX
  5
19D
  8
0
  6
CONTINUOUS
 62
     7
 10
109.2985123738
 20
44.9478106269
 30
0.0
  0
VERTEX
  5
19E
  8
0
  6
CONTINUOUS
 62
     7
 10
108.8472749669
 20
44.0468357388
 30
0.0
  0
VERTEX
  5
19F
  8
0
  6
CONTINUOUS
 62
     7
 10
108.3548231379
 20
43.1445389969
 30
0.0
  0
VERTEX
  5
1A0
  8
0
  6
CONTINUOUS
 62
     7
 10
107.8241199069
 20
42.2290421185
 30
0.0
  0
VERTEX
  5
1A1
  8
0
  6
CONTINUOUS
 62
     7
 10
107.2581282943
 20
41.2884668206
 30
0.0
  0
VERTEX
  5
1A2
  8
0
  6
CONTINUOUS
 62
     7
 10
106.6598113203
 20
40.3109348206
 30
0.0
  0
VERTEX
  5
1A3
  8
0
  6
CONTINUOUS
 62
     7
 10
106.0321320052
 20
39.2845678354
 30
0.0
  0
VERTEX
  5
1A4
  8
0
  6
CONTINUOUS
 62
     7
 10
105.3780533692
 20
38.1974875824
 30
0.0
  0
VERTEX
  5
1A5
  8
0
  6
CONTINUOUS
 62
     7
 10
104.7005384326
 20
37.0378157786
 30
0.0
  0
VERTEX
  5
1A6
  8
0
  6
CONTINUOUS
 62
     7
 10
104.0025502157
 20
35.7936741413
 30
0.0
  0
VERTEX
  5
1A7
  8
0
  6
CONTINUOUS
 62
     7
 10
103.2870517387
 20
34.4531843875
 30
0.0
  0
VERTEX
  5
1A8
  8
0
  6
CONTINUOUS
 62
     7
 10
102.5570060219
 20
33.0044682344
 30
0.0
  0
VERTEX
  5
1A9
  8
0
  6
CONTINUOUS
 62
     7
 10
101.8153760855
 20
31.4356473992
 30
0.0
  0
VERTEX
  5
1AA
  8
0
  6
CONTINUOUS
 62
     7
 10
101.0657826412
 20
29.7396513143
 30
0.0
  0
VERTEX
  5
1AB
  8
0
  6
CONTINUOUS
 62
     7
 10
100.3144771661
 20
27.9286402729
 30
0.0
  0
VERTEX
  5
1AC
  8
0
  6
CONTINUOUS
 62
     7
 10
99.5683688286
 20
26.0195822835
 30
0.0
  0
VERTEX
  5
1AD
  8
0
  6
CONTINUOUS
 62
     7
 10
98.8343667971
 20
24.0294453546
 30
0.0
  0
VERTEX
  5
1AE
  8
0
  6
CONTINUOUS
 62
     7
 10
98.1193802401
 20
21.9751974945
 30
0.0
  0
VERTEX
  5
1AF
  8
0
  6
CONTINUOUS
 62
     7
 10
97.4303183261
 20
19.8738067118
 30
0.0
  0
VERTEX
  5
1B0
  8
0
  6
CONTINUOUS
 62
     7
 10
96.7740902235
 20
17.7422410148
 30
0.0
  0
VERTEX
  5
1B1
  8
0
  6
CONTINUOUS
 62
     7
 10
96.1576051007
 20
15.5974684122
 30
0.0
  0
VERTEX
  5
1B2
  8
0
  6
CONTINUOUS
 62
     7
 10
95.5877721263
 20
13.4564569123
 30
0.0
  0
VERTEX
  5
1B3
  8
0
  6
CONTINUOUS
 62
     7
 10
95.0715004685
 20
11.3361745236
 30
0.0
  0
VERTEX
  5
1B4
  8
0
  6
CONTINUOUS
 62
     7
 10
94.615699296
 20
9.2535892545
 30
0.0
  0
VERTEX
  5
1B5
  8
0
  6
CONTINUOUS
 62
     7
 10
94.2272777771
 20
7.2256691136
 30
0.0
  0
VERTEX
  5
1B6
  8
0
  6
CONTINUOUS
 62
     7
 10
93.9131450803
 20
5.2693821092
 30
0.0
  0
VERTEX
  5
1B7
  8
0
  6
CONTINUOUS
 62
     7
 10
93.680210374
 20
3.4016962498
 30
0.0
  0
VERTEX
  5
1B8
  8
0
  6
CONTINUOUS
 62
     7
 10
93.5353828267
 20
1.6395795439
 30
0.0
  0
VERTEX
  5
1B9
  8
0
  6
CONTINUOUS
 62
     7
 10
93.4855716068
 20
0.0
 30
0.0
  0
SEQEND
  5
23D
  8
0
  6
CONTINUOUS
 62
     7
  0
POLYLINE
  5
DA
  8
0
  6
CONTINUOUS
 62
     7
 66
     1
 10
0.0
 20
0.0
 30
0.0
  0
VERTEX
  5
1BA
  8
0
  6
CONTINUOUS
 62
     7
 10
107.9225142393
 20
53.3174986709
 30
0.0
  0
VERTEX
  5
1BB
  8
0
  6
CONTINUOUS
 62
     7
 10
107.9621639829
 20
53.3286844119
 30
0.0
  0
VERTEX
  5
1BC
  8
0
  6
CONTINUOUS
 62
     7
 10
108.0314812802
 20
53.3279779701
 30
0.0
  0
VERTEX
  5
1BD
  8
0
  6
CONTINUOUS
 62
     7
 10
108.1272891077
 20
53.3146245743
 30
0.0
  0
VERTEX
  5
1BE
  8
0
  6
CONTINUOUS
 62
     7
 10
108.2464104419
 20
53.2878694535
 30
0.0
  0
VERTEX
  5
1BF
  8
0
  6
CONTINUOUS
 62
     7
 10
108.3856682593
 20
53.2469578365
 30
0.0
  0
VERTEX
  5
1C0
  8
0
  6
CONTINUOUS
 62
     7
 10
108.5418855364
 20
53.1911349524
 30
0.0
  0
VERTEX
  5
1C1
  8
0
  6
CONTINUOUS
 62
     7
 10
108.7118852497
 20
53.1196460299
 30
0.0
  0
VERTEX
  5
1C2
  8
0
  6
CONTINUOUS
 62
     7
 10
108.8924903759
 20
53.0317362981
 30
0.0
  0
VERTEX
  5
1C3
  8
0
  6
CONTINUOUS
 62
     7
 10
109.0805238913
 20
52.9266509857
 30
0.0
  0
VERTEX
  5
1C4
  8
0
  6
CONTINUOUS
 62
     7
 10
109.2728087726
 20
52.8036353218
 30
0.0
  0
VERTEX
  5
1C5
  8
0
  6
CONTINUOUS
 62
     7
 10
109.4661679962
 20
52.6619345352
 30
0.0
  0
VERTEX
  5
1C6
  8
0
  6
CONTINUOUS
 62
     7
 10
109.6574245387
 20
52.5007938548
 30
0.0
  0
VERTEX
  5
1C7
  8
0
  6
CONTINUOUS
 62
     7
 10
109.8434013766
 20
52.3194585096
 30
0.0
  0
VERTEX
  5
1C8
  8
0
  6
CONTINUOUS
 62
     7
 10
110.0209214864
 20
52.1171737284
 30
0.0
  0
VERTEX
  5
1C9
  8
0
  6
CONTINUOUS
 62
     7
 10
110.1868078446
 20
51.8931847402
 30
0.0
  0
VERTEX
  5
1CA
  8
0
  6
CONTINUOUS
 62
     7
 10
110.3378834277
 20
51.6467367739
 30
0.0
  0
VERTEX
  5
1CB
  8
0
  6
CONTINUOUS
 62
     7
 10
110.4709712124
 20
51.3770750583
 30
0.0
  0
VERTEX
  5
1CC
  8
0
  6
CONTINUOUS
 62
     7
 10
110.5828941751
 20
51.0834448224
 30
0.0
  0
VERTEX
  5
1CD
  8
0
  6
CONTINUOUS
 62
     7
 10
110.6704752923
 20
50.7650912951
 30
0.0
  0
VERTEX
  5
1CE
  8
0
  6
CONTINUOUS
 62
     7
 10
110.7305375405
 20
50.4212597053
 30
0.0
  0
VERTEX
  5
1CF
  8
0
  6
CONTINUOUS
 62
     7
 10
110.7599038963
 20
50.0511952819
 30
0.0
  0
VERTEX
  5
1D0
  8
0
  6
CONTINUOUS
 62
     7
 10
110.7553973362
 20
49.6541432538
 30
0.0
  0
VERTEX
  5
1D1
  8
0
  6
CONTINUOUS
 62
     7
 10
110.7138408367
 20
49.22934885
 30
0.0
  0
VERTEX
  5
1D2
  8
0
  6
CONTINUOUS
 62
     7
 10
110.6320573744
 20
48.7760572992
 30
0.0
  0
SEQEND
  5
23E
  8
0
  6
CONTINUOUS
 62
     7
  0
ARC
  5
DB
  8
0
  6
CONTINUOUS
 62
     7
 10
101.9855716068
 20
61.6730484541
 30
0.0
 40
10.25000000000002
 50
213.9763528195
 51
305.3952726083
  0
LINE
  5
DC
  8
0
  6
CONTINUOUS
 62
     7
 10
93.4855716068
 20
55.9448288354
 30
0.0
 11
93.4855716068
 21
56.4052215777
 31
0.0
  0
ARC
  5
DD
  8
0
  6
CONTINUOUS
 62
     7
 10
101.9855716068
 20
61.6730484541
 30
0.0
 40
9.999999999999998
 50
148.2116693829
 51
211.7883306171
  0
LINE
  5
DE
  8
0
  6
CONTINUOUS
 62
     7
 10
93.4855716068
 20
66.9408753306
 30
0.0
 11
93.4855716068
 21
67.4012680728
 31
0.0
  0
ARC
  5
DF
  8
0
  6
CONTINUOUS
 62
     7
 10
101.9855716068
 20
61.6730484541
 30
0.0
 40
10.25
 50
59.9219560349
 51
146.0236471805
  0
POLYLINE
  5
E0
  8
0
  6
CONTINUOUS
 62
     7
 66
     1
 10
0.0
 20
0.0
 30
0.0
  0
VERTEX
  5
1D3
  8
0
  6
CONTINUOUS
 62
     7
 10
108.4576389841
 20
76.2874426534
 30
0.0
  0
VERTEX
  5
1D4
  8
0
  6
CONTINUOUS
 62
     7
 10
108.8370493201
 20
75.9105071827
 30
0.0
  0
VERTEX
  5
1D5
  8
0
  6
CONTINUOUS
 62
     7
 10
109.1419961851
 20
75.5355912268
 30
0.0
  0
VERTEX
  5
1D6
  8
0
  6
CONTINUOUS
 62
     7
 10
109.3774751764
 20
75.1640507354
 30
0.0
  0
VERTEX
  5
1D7
  8
0
  6
CONTINUOUS
 62
     7
 10
109.5484818914
 20
74.7972416582
 30
0.0
  0
VERTEX
  5
1D8
  8
0
  6
CONTINUOUS
 62
     7
 10
109.6600119273
 20
74.4365199451
 30
0.0
  0
VERTEX
  5
1D9
  8
0
  6
CONTINUOUS
 62
     7
 10
109.7170608817
 20
74.0832415458
 30
0.0
  0
VERTEX
  5
1DA
  8
0
  6
CONTINUOUS
 62
     7
 10
109.7246243518
 20
73.7387624099
 30
0.0
  0
VERTEX
  5
1DB
  8
0
  6
CONTINUOUS
 62
     7
 10
109.687697935
 20
73.4044384873
 30
0.0
  0
VERTEX
  5
1DC
  8
0
  6
CONTINUOUS
 62
     7
 10
109.6112772286
 20
73.0816257278
 30
0.0
  0
VERTEX
  5
1DD
  8
0
  6
CONTINUOUS
 62
     7
 10
109.5003578301
 20
72.7716800809
 30
0.0
  0
VERTEX
  5
1DE
  8
0
  6
CONTINUOUS
 62
     7
 10
109.3599353368
 20
72.4759574966
 30
0.0
  0
VERTEX
  5
1DF
  8
0
  6
CONTINUOUS
 62
     7
 10
109.1950053461
 20
72.1958139246
 30
0.0
  0
VERTEX
  5
1E0
  8
0
  6
CONTINUOUS
 62
     7
 10
109.0105634553
 20
71.9326053145
 30
0.0
  0
VERTEX
  5
1E1
  8
0
  6
CONTINUOUS
 62
     7
 10
108.8116052618
 20
71.6876876162
 30
0.0
  0
VERTEX
  5
1E2
  8
0
  6
CONTINUOUS
 62
     7
 10
108.603126363
 20
71.4624167794
 30
0.0
  0
VERTEX
  5
1E3
  8
0
  6
CONTINUOUS
 62
     7
 10
108.3901223562
 20
71.2581487538
 30
0.0
  0
VERTEX
  5
1E4
  8
0
  6
CONTINUOUS
 62
     7
 10
108.1775888388
 20
71.0762394892
 30
0.0
  0
VERTEX
  5
1E5
  8
0
  6
CONTINUOUS
 62
     7
 10
107.9705214081
 20
70.9180449354
 30
0.0
  0
VERTEX
  5
1E6
  8
0
  6
CONTINUOUS
 62
     7
 10
107.7739156616
 20
70.784921042
 30
0.0
  0
VERTEX
  5
1E7
  8
0
  6
CONTINUOUS
 62
     7
 10
107.5927671965
 20
70.6782237589
 30
0.0
  0
VERTEX
  5
1E8
  8
0
  6
CONTINUOUS
 62
     7
 10
107.4320716103
 20
70.5993090358
 30
0.0
  0
VERTEX
  5
1E9
  8
0
  6
CONTINUOUS
 62
     7
 10
107.2968245003
 20
70.5495328225
 30
0.0
  0
VERTEX
  5
1EA
  8
0
  6
CONTINUOUS
 62
     7
 10
107.1920214639
 20
70.5302510686
 30
0.0
  0
VERTEX
  5
1EB
  8
0
  6
CONTINUOUS
 62
     7
 10
107.1226580984
 20
70.5428197239
 30
0.0
  0
SEQEND
  5
23F
  8
0
  6
CONTINUOUS
 62
     7
  0
LINE
  5
E1
  8
0
  6
CONTINUOUS
 62
     7
 10
96.525264393
 20
87.0555815738
 30
0.0
 11
108.4576389841
 21
76.2874426534
 31
0.0
  0
ARC
  5
E2
  8
0
  6
CONTINUOUS
 62
     7
 10
101.2149916589
 20
92.2523553971
 30
0.0
 40
7.000000000000007
 50
183.9144478113
 51
227.9359422322
  0
LINE
  5
E3
  8
0
  6
CONTINUOUS
 62
     7
 10
93.4855716068
 20
102.6730484243
 30
0.0
 11
94.2313219852
 21
91.774487332
 31
0.0
  0
POLYLINE
  5
E4
  8
0
  6
CONTINUOUS
 62
     7
 66
     1
 10
0.0
 20
0.0
 30
0.0
  0
VERTEX
  5
1EC
  8
0
  6
CONTINUOUS
 62
     7
 10
93.4855716068
 20
102.6730484243
 30
0.0
  0
VERTEX
  5
1ED
  8
0
  6
CONTINUOUS
 62
     7
 10
93.3992145906
 20
104.5282191938
 30
0.0
  0
VERTEX
  5
1EE
  8
0
  6
CONTINUOUS
 62
     7
 10
93.1491810316
 20
106.2492834363
 30
0.0
  0
VERTEX
  5
1EF
  8
0
  6
CONTINUOUS
 62
     7
 10
92.7490271648
 20
107.8362358666
 30
0.0
  0
VERTEX
  5
1F0
  8
0
  6
CONTINUOUS
 62
     7
 10
92.2123092248
 20
109.2890711999
 30
0.0
  0
VERTEX
  5
1F1
  8
0
  6
CONTINUOUS
 62
     7
 10
91.5525834464
 20
110.6077841509
 30
0.0
  0
VERTEX
  5
1F2
  8
0
  6
CONTINUOUS
 62
     7
 10
90.7834060644
 20
111.7923694347
 30
0.0
  0
VERTEX
  5
1F3
  8
0
  6
CONTINUOUS
 62
     7
 10
89.9183333135
 20
112.8428217661
 30
0.0
  0
VERTEX
  5
1F4
  8
0
  6
CONTINUOUS
 62
     7
 10
88.9709214285
 20
113.7591358602
 30
0.0
  0
VERTEX
  5
1F5
  8
0
  6
CONTINUOUS
 62
     7
 10
87.9547266441
 20
114.5413064318
 30
0.0
  0
VERTEX
  5
1F6
  8
0
  6
CONTINUOUS
 62
     7
 10
86.8833051952
 20
115.1893281958
 30
0.0
  0
VERTEX
  5
1F7
  8
0
  6
CONTINUOUS
 62
     7
 10
85.7702133165
 20
115.7031958672
 30
0.0
  0
VERTEX
  5
1F8
  8
0
  6
CONTINUOUS
 62
     7
 10
84.6290072426
 20
116.082904161
 30
0.0
  0
VERTEX
  5
1F9
  8
0
  6
CONTINUOUS
 62
     7
 10
83.4732432085
 20
116.328447792
 30
0.0
  0
VERTEX
  5
1FA
  8
0
  6
CONTINUOUS
 62
     7
 10
82.3164774489
 20
116.4398214752
 30
0.0
  0
VERTEX
  5
1FB
  8
0
  6
CONTINUOUS
 62
     7
 10
81.1722661985
 20
116.4170199256
 30
0.0
  0
VERTEX
  5
1FC
  8
0
  6
CONTINUOUS
 62
     7
 10
80.054165692
 20
116.260037858
 30
0.0
  0
VERTEX
  5
1FD
  8
0
  6
CONTINUOUS
 62
     7
 10
78.9757321643
 20
115.9688699875
 30
0.0
  0
VERTEX
  5
1FE
  8
0
  6
CONTINUOUS
 62
     7
 10
77.9505218501
 20
115.5435110288
 30
0.0
  0
VERTEX
  5
1FF
  8
0
  6
CONTINUOUS
 62
     7
 10
76.9920909842
 20
114.9839556971
 30
0.0
  0
VERTEX
  5
200
  8
0
  6
CONTINUOUS
 62
     7
 10
76.1139958013
 20
114.2901987071
 30
0.0
  0
VERTEX
  5
201
  8
0
  6
CONTINUOUS
 62
     7
 10
75.3297925362
 20
113.4622347739
 30
0.0
  0
VERTEX
  5
202
  8
0
  6
CONTINUOUS
 62
     7
 10
74.6530374237
 20
112.5000586123
 30
0.0
  0
VERTEX
  5
203
  8
0
  6
CONTINUOUS
 62
     7
 10
74.0972866984
 20
111.4036649373
 30
0.0
  0
VERTEX
  5
204
  8
0
  6
CONTINUOUS
 62
     7
 10
73.6760965953
 20
110.1730484639
 30
0.0
  0
SEQEND
  5
240
  8
0
  6
CONTINUOUS
 62
     7
  0
LINE
  5
E5
  8
0
  6
CONTINUOUS
 62
     7
 10
73.6760965953
 20
110.1730484639
 30
0.0
 11
70.4845833434
 21
97.8123708761
 31
0.0
  0
ARC
  5
E6
  8
0
  6
CONTINUOUS
 62
     7
 10
60.8021249821
 20
100.3123708924
 30
0.0
 40
10.0
 50
330.0
 51
345.5224877176
  0
LINE
  5
E7
  8
0
  6
CONTINUOUS
 62
     7
 10
69.4623790199
 20
95.3123708924
 30
0.0
 11
63.9623790199
 21
85.7860914508
 31
0.0
  0
ARC
  5
E8
  8
0
  6
CONTINUOUS
 62
     7
 10
60.4982774048
 20
87.7860914508
 30
0.0
 40
4.000000000000009
 50
240.0
 51
330.0
  0
LINE
  5
E9
  8
0
  6
CONTINUOUS
 62
     7
 10
58.4982774048
 20
84.3219898356
 30
0.0
 11
56.3332144216
 21
85.5719895318
 31
0.0
  0
ARC
  5
EA
  8
0
  6
CONTINUOUS
 62
     7
 10
55.3332144216
 20
83.8399387242
 30
0.0
 40
2.000000000000004
 50
60.0
 51
150.0
  0
LINE
  5
EB
  8
0
  6
CONTINUOUS
 62
     7
 10
30.601163614
 20
45.0027701502
 30
0.0
 11
53.601163614
 21
84.8399387242
 31
0.0
  0
ARC
  5
EC
  8
0
  6
CONTINUOUS
 62
     7
 10
27.1370619989
 20
47.0027701502
 30
0.0
 40
3.999999999999993
 50
150.0
 51
330.0
  0
LINE
  5
ED
  8
0
  6
CONTINUOUS
 62
     7
 10
46.6729603837
 20
88.8399387242
 30
0.0
 11
23.6729603837
 21
49.0027701502
 31
0.0
  0
ARC
  5
EE
  8
0
  6
CONTINUOUS
 62
     7
 10
44.9409095761
 20
89.8399387242
 30
0.0
 40
2.000000000000004
 50
330.0
 51
60.0
  0
LINE
  5
EF
  8
0
  6
CONTINUOUS
 62
     7
 10
45.9409095761
 20
91.5719895318
 30
0.0
 11
43.7758465929
 21
92.821989228
 31
0.0
  0
ARC
  5
F0
  8
0
  6
CONTINUOUS
 62
     7
 10
45.7758465929
 20
96.2860908431
 30
0.0
 40
4.000000000000002
 50
150.0
 51
240.0
  0
LINE
  5
F1
  8
0
  6
CONTINUOUS
 62
     7
 10
42.3117449778
 20
98.2860908431
 30
0.0
 11
47.8117449778
 21
107.8123702848
 31
0.0
  0
ARC
  5
F2
  8
0
  6
CONTINUOUS
 62
     7
 10
56.4719990156
 20
102.8123702848
 30
0.0
 40
9.999999999999996
 50
134.4775122824
 51
150.0
  0
LINE
  5
F3
  8
0
  6
CONTINUOUS
 62
     7
 10
49.4657063114
 20
109.9476251886
 30
0.0
 11
58.5746104845
 21
118.8918955352
 31
0.0
  0
POLYLINE
  5
F4
  8
0
  6
CONTINUOUS
 62
     7
 66
     1
 10
0.0
 20
0.0
 30
0.0
  0
VERTEX
  5
205
  8
0
  6
CONTINUOUS
 62
     7
 10
58.5746104845
 20
118.8918955352
 30
0.0
  0
VERTEX
  5
206
  8
0
  6
CONTINUOUS
 62
     7
 10
59.4297605612
 20
119.871965101
 30
0.0
  0
VERTEX
  5
207
  8
0
  6
CONTINUOUS
 62
     7
 10
60.1013899736
 20
120.9014561846
 30
0.0
  0
VERTEX
  5
208
  8
0
  6
CONTINUOUS
 62
     7
 10
60.5962814161
 20
121.9686313848
 30
0.0
  0
VERTEX
  5
209
  8
0
  6
CONTINUOUS
 62
     7
 10
60.921217583
 20
123.0617533005
 30
0.0
  0
VERTEX
  5
20A
  8
0
  6
CONTINUOUS
 62
     7
 10
61.0829811688
 20
124.1690845305
 30
0.0
  0
VERTEX
  5
20B
  8
0
  6
CONTINUOUS
 62
     7
 10
61.0883548679
 20
125.2788876737
 30
0.0
  0
VERTEX
  5
20C
  8
0
  6
CONTINUOUS
 62
     7
 10
60.9441213746
 20
126.379425329
 30
0.0
  0
VERTEX
  5
20D
  8
0
  6
CONTINUOUS
 62
     7
 10
60.6570633832
 20
127.4589600952
 30
0.0
  0
VERTEX
  5
20E
  8
0
  6
CONTINUOUS
 62
     7
 10
60.2339635883
 20
128.5057545711
 30
0.0
  0
VERTEX
  5
20F
  8
0
  6
CONTINUOUS
 62
     7
 10
59.6816046841
 20
129.5080713557
 30
0.0
  0
VERTEX
  5
210
  8
0
  6
CONTINUOUS
 62
     7
 10
59.0067693651
 20
130.4541730477
 30
0.0
  0
VERTEX
  5
211
  8
0
  6
CONTINUOUS
 62
     7
 10
58.2162403257
 20
131.332322246
 30
0.0
  0
VERTEX
  5
212
  8
0
  6
CONTINUOUS
 62
     7
 10
57.3168002602
 20
132.1307815496
 30
0.0
  0
VERTEX
  5
213
  8
0
  6
CONTINUOUS
 62
     7
 10
56.315231863
 20
132.8378135571
 30
0.0
  0
VERTEX
  5
214
  8
0
  6
CONTINUOUS
 62
     7
 10
55.2183178285
 20
133.4416808676
 30
0.0
  0
VERTEX
  5
215
  8
0
  6
CONTINUOUS
 62
     7
 10
54.032840851
 20
133.9306460799
 30
0.0
  0
VERTEX
  5
216
  8
0
  6
CONTINUOUS
 62
     7
 10
52.7655836251
 20
134.2929717927
 30
0.0
  0
VERTEX
  5
217
  8
0
  6
CONTINUOUS
 62
     7
 10
51.423328845
 20
134.516920605
 30
0.0
  0
VERTEX
  5
218
  8
0
  6
CONTINUOUS
 62
     7
 10
50.0128592052
 20
134.5907551156
 30
0.0
  0
VERTEX
  5
219
  8
0
  6
CONTINUOUS
 62
     7
 10
48.5409574
 20
134.5027379235
 30
0.0
  0
VERTEX
  5
21A
  8
0
  6
CONTINUOUS
 62
     7
 10
47.0144061238
 20
134.2411316273
 30
0.0
  0
VERTEX
  5
21B
  8
0
  6
CONTINUOUS
 62
     7
 10
45.439988071
 20
133.7941988261
 30
0.0
  0
VERTEX
  5
21C
  8
0
  6
CONTINUOUS
 62
     7
 10
43.8244859359
 20
133.1502021186
 30
0.0
  0
VERTEX
  5
21D
  8
0
  6
CONTINUOUS
 62
     7
 10
42.1746824131
 20
132.2974041037
 30
0.0
  0
SEQEND
  5
241
  8
0
  6
CONTINUOUS
 62
     7
  0
LINE
  5
F5
  8
0
  6
CONTINUOUS
 62
     7
 10
42.174682416
 20
132.297404111
 30
0.0
 11
32.3633764563
 21
127.4939623374
 31
0.0
  0
ARC
  5
F6
  8
0
  6
CONTINUOUS
 62
     7
 10
29.2853875034
 20
133.780931719
 30
0.0
 40
7.000000000000028
 50
252.0640577678
 51
296.0855521887
  0
LINE
  5
F7
  8
0
  6
CONTINUOUS
 62
     7
 10
27.1297129877
 20
127.1211218582
 30
0.0
 11
11.8380438355
 21
132.0707919214
 31
0.0
  0
POLYLINE
  5
F8
  8
0
  6
CONTINUOUS
 62
     7
 66
     1
 10
0.0
 20
0.0
 30
0.0
  0
VERTEX
  5
21E
  8
0
  6
CONTINUOUS
 62
     7
 10
11.8380438355
 20
132.0707919214
 30
0.0
  0
VERTEX
  5
21F
  8
0
  6
CONTINUOUS
 62
     7
 10
11.3219029743
 20
132.2109031755
 30
0.0
  0
VERTEX
  5
220
  8
0
  6
CONTINUOUS
 62
     7
 10
10.8447427997
 20
132.2875369295
 30
0.0
  0
VERTEX
  5
221
  8
0
  6
CONTINUOUS
 62
     7
 10
10.4052398
 20
132.3056974723
 30
0.0
  0
VERTEX
  5
222
  8
0
  6
CONTINUOUS
 62
     7
 10
10.0020704634
 20
132.2703890931
 30
0.0
  0
VERTEX
  5
223
  8
0
  6
CONTINUOUS
 62
     7
 10
9.6339112781
 20
132.1866160809
 30
0.0
  0
VERTEX
  5
224
  8
0
  6
CONTINUOUS
 62
     7
 10
9.2994387325
 20
132.059382725
 30
0.0
  0
VERTEX
  5
225
  8
0
  6
CONTINUOUS
 62
     7
 10
8.9973293147
 20
131.8936933143
 30
0.0
  0
VERTEX
  5
226
  8
0
  6
CONTINUOUS
 62
     7
 10
8.7262595131
 20
131.694552138
 30
0.0
  0
VERTEX
  5
227
  8
0
  6
CONTINUOUS
 62
     7
 10
8.4849058158
 20
131.4669634851
 30
0.0
  0
VERTEX
  5
228
  8
0
  6
CONTINUOUS
 62
     7
 10
8.2719447111
 20
131.2159316449
 30
0.0
  0
VERTEX
  5
229
  8
0
  6
CONTINUOUS
 62
     7
 10
8.0860526873
 20
130.9464609062
 30
0.0
  0
VERTEX
  5
22A
  8
0
  6
CONTINUOUS
 62
     7
 10
7.9259062325
 20
130.6635555584
 30
0.0
  0
VERTEX
  5
22B
  8
0
  6
CONTINUOUS
 62
     7
 10
7.7901818351
 20
130.3722198904
 30
0.0
  0
VERTEX
  5
22C
  8
0
  6
CONTINUOUS
 62
     7
 10
7.6775559833
 20
130.0774581914
 30
0.0
  0
VERTEX
  5
22D
  8
0
  6
CONTINUOUS
 62
     7
 10
7.5867051653
 20
129.7842747505
 30
0.0
  0
VERTEX
  5
22E
  8
0
  6
CONTINUOUS
 62
     7
 10
7.5163058693
 20
129.4976738567
 30
0.0
  0
VERTEX
  5
22F
  8
0
  6
CONTINUOUS
 62
     7
 10
7.4650345837
 20
129.2226597991
 30
0.0
  0
VERTEX
  5
230
  8
0
  6
CONTINUOUS
 62
     7
 10
7.4315677967
 20
128.964236867
 30
0.0
  0
VERTEX
  5
231
  8
0
  6
CONTINUOUS
 62
     7
 10
7.4145819965
 20
128.7274093493
 30
0.0
  0
VERTEX
  5
232
  8
0
  6
CONTINUOUS
 62
     7
 10
7.4127536713
 20
128.5171815351
 30
0.0
  0
VERTEX
  5
233
  8
0
  6
CONTINUOUS
 62
     7
 10
7.4247593095
 20
128.3385577136
 30
0.0
  0
VERTEX
  5
234
  8
0
  6
CONTINUOUS
 62
     7
 10
7.4492753992
 20
128.1965421739
 30
0.0
  0
VERTEX
  5
235
  8
0
  6
CONTINUOUS
 62
     7
 10
7.4849784287
 20
128.096139205
 30
0.0
  0
VERTEX
  5
236
  8
0
  6
CONTINUOUS
 62
     7
 10
7.5305448863
 20
128.0423530961
 30
0.0
  0
SEQEND
  5
242
  8
0
  6
CONTINUOUS
 62
     7
  0
ARC
  5
F9
  8
0
  6
CONTINUOUS
 62
     7
 10
2.4176408867
 20
119.1586200581
 30
0.0
 40
10.25000000871548
 50
333.9763528433
 51
60.0780439651
  0
LINE
  5
FA
  8
0
  6
CONTINUOUS
 62
     7
 10
11.6284246046
 20
114.6615139352
 30
0.0
 11
11.2297127801
 21
114.431317556
 31
0.0
  0
ENDSEC
  0
EOF
